  0
SECTION
  2
HEADER
  9
$ACADVER
  1
AC1015
  9
$ACADMAINTVER
 70
     6
  9
$DWGCODEPAGE
  3
ANSI_1254
  9
$INSBASE
 10
0.0
 20
0.0
 30
0.0
  9
$EXTMIN
 10
0.0
 20
0.0
 30
0.0
  9
$EXTMAX
 10
279.4
 20
215.9
 30
0.0
  9
$LIMMIN
 10
0.0
 20
0.0
  9
$LIMMAX
 10
279.4
 20
215.9
  9
$ORTHOMODE
 70
     0
  9
$REGENMODE
 70
     1
  9
$FILLMODE
 70
     1
  9
$QTEXTMODE
 70
     0
  9
$MIRRTEXT
 70
     1
  9
$LTSCALE
 40
1.0
  9
$ATTMODE
 70
     1
  9
$TEXTSIZE
 40
3.5
  9
$TRACEWID
 40
1.0
  9
$TEXTSTYLE
  7
Standard
  9
$CLAYER
  8
0
  9
$CELTYPE
  6
ByLayer
  9
$CECOLOR
 62
   256
  9
$CELTSCALE
 40
1.0
  9
$DISPSILH
 70
     0
  9
$DIMSCALE
 40
1.0
  9
$DIMASZ
 40
3.5
  9
$DIMEXO
 40
1.0
  9
$DIMDLI
 40
3.75
  9
$DIMRND
 40
0.0
  9
$DIMDLE
 40
0.0
  9
$DIMEXE
 40
1.0
  9
$DIMTP
 40
0.0
  9
$DIMTM
 40
0.0
  9
$DIMTXT
 40
3.5
  9
$DIMCEN
 40
2.5
  9
$DIMTSZ
 40
0.0
  9
$DIMTOL
 70
     0
  9
$DIMLIM
 70
     0
  9
$DIMTIH
 70
     1
  9
$DIMTOH
 70
     1
  9
$DIMSE1
 70
     0
  9
$DIMSE2
 70
     0
  9
$DIMTAD
 70
     1
  9
$DIMZIN
 70
     0
  9
$DIMBLK
  1

  9
$DIMASO
 70
     1
  9
$DIMSHO
 70
     1
  9
$DIMPOST
  1

  9
$DIMAPOST
  1

  9
$DIMALT
 70
     0
  9
$DIMALTD
 70
     3
  9
$DIMALTF
 40
0.0393700787
  9
$DIMLFAC
 40
1.0
  9
$DIMTOFL
 70
     1
  9
$DIMTVP
 40
0.0
  9
$DIMTIX
 70
     0
  9
$DIMSOXD
 70
     0
  9
$DIMSAH
 70
     0
  9
$DIMBLK1
  1

  9
$DIMBLK2
  1

  9
$DIMSTYLE
  2
ISO-25
  9
$DIMCLRD
 70
     0
  9
$DIMCLRE
 70
     0
  9
$DIMCLRT
 70
     0
  9
$DIMTFAC
 40
1.0
  9
$DIMGAP
 40
1.524
  9
$DIMJUST
 70
     0
  9
$DIMSD1
 70
     0
  9
$DIMSD2
 70
     0
  9
$DIMTOLJ
 70
     0
  9
$DIMTZIN
 70
     0
  9
$DIMALTZ
 70
     0
  9
$DIMALTTZ
 70
     0
  9
$DIMUPT
 70
     0
  9
$DIMDEC
 70
     2
  9
$DIMTDEC
 70
     2
  9
$DIMALTU
 70
     2
  9
$DIMALTTD
 70
     3
  9
$DIMTXSTY
  7
Standard
  9
$DIMAUNIT
 70
     0
  9
$DIMADEC
 70
     2
  9
$DIMALTRND
 40
0.0
  9
$DIMAZIN
 70
     0
  9
$DIMDSEP
 70
    44
  9
$DIMATFIT
 70
     3
  9
$DIMFRAC
 70
     0
  9
$DIMLDRBLK
  1

  9
$DIMLUNIT
 70
     2
  9
$DIMLWD
 70
    -2
  9
$DIMLWE
 70
    -2
  9
$DIMTMOVE
 70
     0
  9
$LUNITS
 70
     2
  9
$LUPREC
 70
     2
  9
$SKETCHINC
 40
1.0
  9
$FILLETRAD
 40
10.0
  9
$AUNITS
 70
     0
  9
$AUPREC
 70
     2
  9
$MENU
  1
.
  9
$ELEVATION
 40
0.0
  9
$PELEVATION
 40
0.0
  9
$THICKNESS
 40
0.0
  9
$LIMCHECK
 70
     0
  9
$CHAMFERA
 40
0.0
  9
$CHAMFERB
 40
0.0
  9
$CHAMFERC
 40
0.0
  9
$CHAMFERD
 40
0.0
  9
$SKPOLY
 70
     0
  9
$TDCREATE
 40
2460346.670832974
  9
$TDUCREATE
 40
2460346.545832974
  9
$TDUPDATE
 40
2460346.67083316
  9
$TDUUPDATE
 40
2460346.54583316
  9
$TDINDWG
 40
0.0000000116
  9
$TDUSRTIMER
 40
0.0000000116
  9
$USRTIMER
 70
     1
  9
$ANGBASE
 50
0.0
  9
$ANGDIR
 70
     0
  9
$PDMODE
 70
     0
  9
$PDSIZE
 40
-1.0
  9
$PLINEWID
 40
0.0
  9
$SPLFRAME
 70
     0
  9
$SPLINETYPE
 70
     6
  9
$SPLINESEGS
 70
     8
  9
$HANDSEED
  5
129
  9
$SURFTAB1
 70
     6
  9
$SURFTAB2
 70
     6
  9
$SURFTYPE
 70
     6
  9
$SURFU
 70
     6
  9
$SURFV
 70
     6
  9
$UCSBASE
  2

  9
$UCSNAME
  2

  9
$UCSORG
 10
0.0
 20
0.0
 30
0.0
  9
$UCSXDIR
 10
1.0
 20
0.0
 30
0.0
  9
$UCSYDIR
 10
0.0
 20
1.0
 30
0.0
  9
$UCSORTHOREF
  2

  9
$UCSORTHOVIEW
 70
     0
  9
$UCSORGTOP
 10
0.0
 20
0.0
 30
0.0
  9
$UCSORGBOTTOM
 10
0.0
 20
0.0
 30
0.0
  9
$UCSORGLEFT
 10
0.0
 20
0.0
 30
0.0
  9
$UCSORGRIGHT
 10
0.0
 20
0.0
 30
0.0
  9
$UCSORGFRONT
 10
0.0
 20
0.0
 30
0.0
  9
$UCSORGBACK
 10
0.0
 20
0.0
 30
0.0
  9
$PUCSBASE
  2

  9
$PUCSNAME
  2

  9
$PUCSORG
 10
0.0
 20
0.0
 30
0.0
  9
$PUCSXDIR
 10
1.0
 20
0.0
 30
0.0
  9
$PUCSYDIR
 10
0.0
 20
1.0
 30
0.0
  9
$PUCSORTHOREF
  2

  9
$PUCSORTHOVIEW
 70
     0
  9
$PUCSORGTOP
 10
0.0
 20
0.0
 30
0.0
  9
$PUCSORGBOTTOM
 10
0.0
 20
0.0
 30
0.0
  9
$PUCSORGLEFT
 10
0.0
 20
0.0
 30
0.0
  9
$PUCSORGRIGHT
 10
0.0
 20
0.0
 30
0.0
  9
$PUCSORGFRONT
 10
0.0
 20
0.0
 30
0.0
  9
$PUCSORGBACK
 10
0.0
 20
0.0
 30
0.0
  9
$USERI1
 70
     0
  9
$USERI2
 70
     0
  9
$USERI3
 70
     0
  9
$USERI4
 70
     0
  9
$USERI5
 70
     0
  9
$USERR1
 40
0.0
  9
$USERR2
 40
0.0
  9
$USERR3
 40
0.0
  9
$USERR4
 40
0.0
  9
$USERR5
 40
0.0
  9
$WORLDVIEW
 70
     1
  9
$SHADEDGE
 70
     3
  9
$SHADEDIF
 70
    70
  9
$TILEMODE
 70
     1
  9
$MAXACTVP
 70
    64
  9
$PINSBASE
 10
0.0
 20
0.0
 30
0.0
  9
$PLIMCHECK
 70
     0
  9
$PEXTMIN
 10
1.0000000000E+20
 20
1.0000000000E+20
 30
1.0000000000E+20
  9
$PEXTMAX
 10
-1.0000000000E+20
 20
-1.0000000000E+20
 30
-1.0000000000E+20
  9
$PLIMMIN
 10
0.0
 20
0.0
  9
$PLIMMAX
 10
420.0
 20
297.0
  9
$UNITMODE
 70
     0
  9
$VISRETAIN
 70
     1
  9
$PLINEGEN
 70
     0
  9
$PSLTSCALE
 70
     1
  9
$TREEDEPTH
 70
  3020
  9
$CMLSTYLE
  2
Standard
  9
$CMLJUST
 70
     0
  9
$CMLSCALE
 40
20.0
  9
$PROXYGRAPHICS
 70
     1
  9
$MEASUREMENT
 70
     1
  9
$CELWEIGHT
370
    -1
  9
$ENDCAPS
280
     0
  9
$JOINSTYLE
280
     0
  9
$LWDISPLAY
290
     1
  9
$INSUNITS
 70
     4
  9
$HYPERLINKBASE
  1

  9
$STYLESHEET
  1

  9
$XEDIT
290
     1
  9
$CEPSNTYPE
380
     0
  9
$PSTYLEMODE
290
     1
  9
$FINGERPRINTGUID
  2
{268646b8-aecc-4824-a566-8de6693b4767}
  9
$VERSIONGUID
  2
{FAEB1C32-E019-11D5-929B-00C0DF256EC4}
  9
$EXTNAMES
290
     1
  9
$PSVPSCALE
 40
0.0
  9
$OLESTARTUP
290
     0
  0
ENDSEC
  0
SECTION
  2
CLASSES
  0
CLASS
  1
ACDBDICTIONARYWDFLT
  2
AcDbDictionaryWithDefault
  3
ObjectDBX Classes
 90
        0
280
     0
281
     0
  0
CLASS
  1
VISUALSTYLE
  2
AcDbVisualStyle
  3
ObjectDBX Classes
 90
     4095
280
     0
281
     0
  0
CLASS
  1
MATERIAL
  2
AcDbMaterial
  3
ObjectDBX Classes
 90
     1153
280
     0
281
     0
  0
CLASS
  1
SCALE
  2
AcDbScale
  3
ObjectDBX Classes
 90
     1153
280
     0
281
     0
  0
CLASS
  1
TABLESTYLE
  2
AcDbTableStyle
  3
ObjectDBX Classes
 90
     4095
280
     0
281
     0
  0
CLASS
  1
MLEADERSTYLE
  2
AcDbMLeaderStyle
  3
ACDB_MLEADERSTYLE_CLASS
 90
     4095
280
     0
281
     0
  0
CLASS
  1
SUN
  2
AcDbSun
  3
SCENEOE
 90
     1153
280
     0
281
     0
  0
CLASS
  1
ACDBPLACEHOLDER
  2
AcDbPlaceHolder
  3
ObjectDBX Classes
 90
        0
280
     0
281
     0
  0
CLASS
  1
LAYOUT
  2
AcDbLayout
  3
ObjectDBX Classes
 90
        0
280
     0
281
     0
  0
ENDSEC
  0
SECTION
  2
TABLES
  0
TABLE
  2
VPORT
  5
8
330
0
100
AcDbSymbolTable
 70
     1
  0
VPORT
  5
29
330
8
100
AcDbSymbolTableRecord
100
AcDbViewportTableRecord
  2
*Active
 70
     0
 10
0.0
 20
0.0
 11
1.0
 21
1.0
 12
139.7
 22
107.95
 13
0.0
 23
0.0
 14
10.0
 24
10.0
 15
10.0
 25
10.0
 16
0.0
 26
0.0
 36
1.0
 17
0.0
 27
0.0
 37
0.0
 40
215.9
 41
1.2941176471
 42
50.0
 43
0.0
 44
0.0
 50
0.0
 51
0.0
 71
     0
 72
  2000
 73
     1
 74
     3
 75
     0
 76
     0
 77
     0
 78
     0
281
     0
 65
     1
110
0.0
120
0.0
130
0.0
111
1.0
121
0.0
131
0.0
112
0.0
122
1.0
132
0.0
 79
     0
146
0.0
  0
ENDTAB
  0
TABLE
  2
LTYPE
  5
5
330
0
100
AcDbSymbolTable
 70
     6
  0
LTYPE
  5
14
330
5
100
AcDbSymbolTableRecord
100
AcDbLinetypeTableRecord
  2
ByBlock
 70
     0
  3

 72
    65
 73
     0
 40
0.0
  0
LTYPE
  5
15
330
5
100
AcDbSymbolTableRecord
100
AcDbLinetypeTableRecord
  2
ByLayer
 70
     0
  3

 72
    65
 73
     0
 40
0.0
  0
LTYPE
  5
16
330
5
100
AcDbSymbolTableRecord
100
AcDbLinetypeTableRecord
  2
Continuous
 70
     0
  3
Solid line
 72
    65
 73
     0
 40
0.0
  0
LTYPE
  5
6E
330
5
100
AcDbSymbolTableRecord
100
AcDbLinetypeTableRecord
  2
HIDDEN
 70
     0
  3
Hidden __ __ __ __ __ __ __ __ __ __ __ __ __ __
 72
    65
 73
     2
 40
1.905
 49
1.27
 74
     0
 49
-0.635
 74
     0
  0
LTYPE
  5
6F
330
5
100
AcDbSymbolTableRecord
100
AcDbLinetypeTableRecord
  2
PHANTOM
 70
     0
  3
Phantom ______  __  __  ______  __  __  ______
 72
    65
 73
     6
 40
12.7
 49
6.35
 74
     0
 49
-1.27
 74
     0
 49
1.27
 74
     0
 49
-1.27
 74
     0
 49
1.27
 74
     0
 49
-1.27
 74
     0
  0
LTYPE
  5
70
330
5
100
AcDbSymbolTableRecord
100
AcDbLinetypeTableRecord
  2
CENTER
 70
     0
  3
Center ____ _ ____ _ ____ _ ____ _ ____ _ ____
 72
    65
 73
     4
 40
10.16
 49
6.35
 74
     0
 49
-1.27
 74
     0
 49
1.27
 74
     0
 49
-1.27
 74
     0
  0
LTYPE
  5
71
330
5
100
AcDbSymbolTableRecord
100
AcDbLinetypeTableRecord
  2
CENTERX2
 70
     0
  3
Center (2x) ________  __  ________  __  _____
 72
    65
 73
     4
 40
20.32
 49
12.7
 74
     0
 49
-2.54
 74
     0
 49
2.54
 74
     0
 49
-2.54
 74
     0
  0
LTYPE
  5
72
330
5
100
AcDbSymbolTableRecord
100
AcDbLinetypeTableRecord
  2
DOT2
 70
     0
  3
Dot (.5x) ........................................
 72
    65
 73
     2
 40
0.635
 49
0.0
 74
     0
 49
-0.635
 74
     0
  0
ENDTAB
  0
TABLE
  2
LAYER
  5
2
330
0
100
AcDbSymbolTable
 70
    17
  0
LAYER
  5
10
330
2
100
AcDbSymbolTableRecord
100
AcDbLayerTableRecord
  2
0
 70
     0
 62
     7
  6
Continuous
370
    -3
390
F
  0
LAYER
  5
73
330
2
100
AcDbSymbolTableRecord
100
AcDbLayerTableRecord
  2
FORMAT
 70
     0
 62
     7
  6
Continuous
370
    -3
390
F
  0
LAYER
  5
74
330
2
100
AcDbSymbolTableRecord
100
AcDbLayerTableRecord
  2
YARDIMCI_GEOMETRI
 70
     0
 62
    -6
  6
Continuous
290
     0
370
    -3
390
F
  0
LAYER
  5
75
330
2
100
AcDbSymbolTableRecord
100
AcDbLayerTableRecord
  2
SAYFA_CERCEVESI
 70
     0
 62
     7
  6
Continuous
370
    25
390
F
  0
LAYER
  5
76
330
2
100
AcDbSymbolTableRecord
100
AcDbLayerTableRecord
  2
ANTET
 70
     0
 62
     7
  6
Continuous
370
    -3
390
F
  0
LAYER
  5
77
330
2
100
AcDbSymbolTableRecord
100
AcDbLayerTableRecord
  2
OLCU
 70
     0
 62
   150
  6
Continuous
370
    -3
390
F
  0
LAYER
  5
78
330
2
100
AcDbSymbolTableRecord
100
AcDbLayerTableRecord
  2
METIN
 70
     0
 62
    96
  6
Continuous
370
    -3
390
F
  0
LAYER
  5
79
330
2
100
AcDbSymbolTableRecord
100
AcDbLayerTableRecord
  2
BALON
 70
     0
 62
     5
  6
Continuous
370
    -3
390
F
  0
LAYER
  5
7A
330
2
100
AcDbSymbolTableRecord
100
AcDbLayerTableRecord
  2
VURGU
 70
     0
 62
     7
  6
Continuous
370
    -3
390
F
  0
LAYER
  5
7B
330
2
100
AcDbSymbolTableRecord
100
AcDbLayerTableRecord
  2
SILIK
 70
     0
 62
     7
  6
Continuous
370
    -3
390
F
  0
LAYER
  5
7C
330
2
100
AcDbSymbolTableRecord
100
AcDbLayerTableRecord
  2
MODEL
 70
     0
 62
     7
  6
Continuous
370
    -3
390
F
  0
LAYER
  5
7D
330
2
100
AcDbSymbolTableRecord
100
AcDbLayerTableRecord
  2
DETAYLANDıRMA
 70
     0
 62
   190
  6
Continuous
370
    -3
390
F
  0
LAYER
  5
7E
330
2
100
AcDbSymbolTableRecord
100
AcDbLayerTableRecord
  2
TOLERANS
 70
     0
 62
   230
  6
Continuous
370
    -3
390
F
  0
LAYER
  5
7F
330
2
100
AcDbSymbolTableRecord
100
AcDbLayerTableRecord
  2
MERKEZ_CIZGILERI
 70
     0
 62
    30
  6
Continuous
370
    -3
390
F
  0
LAYER
  5
80
330
2
100
AcDbSymbolTableRecord
100
AcDbLayerTableRecord
  2
KESIT-DETAY_CIZGILERI
 70
     0
 62
     7
  6
Continuous
370
    -3
390
F
  0
LAYER
  5
81
330
2
100
AcDbSymbolTableRecord
100
AcDbLayerTableRecord
  2
\U+041E\U+0421\U+0415\U+0412\U+042B\U+0415
 70
     0
 62
     7
  6
Continuous
370
    -3
390
F
  0
LAYER
  5
82
330
2
100
AcDbSymbolTableRecord
100
AcDbLayerTableRecord
  2
\U+0412\U+041E\U+0414\U+042F\U+041D\U+042B\U+0415_\U+0417\U+041D\U+0410\U+041A\U+0418
 70
     0
 62
    11
  6
Continuous
370
    -3
390
F
  0
ENDTAB
  0
TABLE
  2
STYLE
  5
3
330
0
100
AcDbSymbolTable
 70
     1
  0
STYLE
  5
11
330
3
100
AcDbSymbolTableRecord
100
AcDbTextStyleTableRecord
  2
Standard
 70
     0
 40
0.0
 41
1.0
 50
0.0
 71
     0
 42
3.5
  3
txt
  4

  0
ENDTAB
  0
TABLE
  2
VIEW
  5
6
330
0
100
AcDbSymbolTable
 70
     0
  0
ENDTAB
  0
TABLE
  2
UCS
  5
7
330
0
100
AcDbSymbolTable
 70
     0
  0
ENDTAB
  0
TABLE
  2
APPID
  5
9
330
0
100
AcDbSymbolTable
 70
     1
  0
APPID
  5
12
330
9
100
AcDbSymbolTableRecord
100
AcDbRegAppTableRecord
  2
ACAD
 70
     0
  0
ENDTAB
  0
TABLE
  2
DIMSTYLE
  5
A
330
0
100
AcDbSymbolTable
 70
     1
100
AcDbDimStyleTable
  0
DIMSTYLE
105
27
330
A
100
AcDbSymbolTableRecord
100
AcDbDimStyleTableRecord
  2
ISO-25
 70
     0
 41
2.5
 42
0.625
 43
3.75
 44
1.25
 73
     0
 74
     0
 77
     1
 78
     8
140
2.5
141
2.5
143
0.0393700787
147
0.625
171
     3
172
     1
178
     0
271
     2
272
     2
274
     3
278
    44
283
     0
284
     8
340
11
  0
ENDTAB
  0
TABLE
  2
BLOCK_RECORD
  5
1
330
0
100
AcDbSymbolTable
 70
     4
  0
BLOCK_RECORD
  5
1F
330
1
100
AcDbSymbolTableRecord
100
AcDbBlockTableRecord
  2
*Model_Space
340
22
  0
BLOCK_RECORD
  5
1B
330
1
100
AcDbSymbolTableRecord
100
AcDbBlockTableRecord
  2
*Paper_Space
340
1E
  0
BLOCK_RECORD
  5
23
330
1
100
AcDbSymbolTableRecord
100
AcDbBlockTableRecord
  2
*Paper_Space0
340
26
  0
BLOCK_RECORD
  5
8C
330
1
100
AcDbSymbolTableRecord
100
AcDbBlockTableRecord
  2
SW_CENTERMARKSYMBOL_0
340
0
102
{BLKREFS
331
97
102
}
  0
BLOCK_RECORD
  5
C6
330
1
100
AcDbSymbolTableRecord
100
AcDbBlockTableRecord
  2
SW_CENTERMARKSYMBOL_1
340
0
102
{BLKREFS
331
D1
102
}
  0
BLOCK_RECORD
  5
D2
330
1
100
AcDbSymbolTableRecord
100
AcDbBlockTableRecord
  2
SW_CENTERMARKSYMBOL_2
340
0
102
{BLKREFS
331
DD
102
}
  0
ENDTAB
  0
ENDSEC
  0
SECTION
  2
BLOCKS
  0
BLOCK
  5
20
330
1F
100
AcDbEntity
  8
0
100
AcDbBlockBegin
  2
*Model_Space
 70
     0
 10
0.0
 20
0.0
 30
0.0
  3
*Model_Space
  1

  0
ENDBLK
  5
21
330
1F
100
AcDbEntity
  8
0
100
AcDbBlockEnd
  0
BLOCK
  5
1C
330
1B
100
AcDbEntity
 67
     1
  8
0
100
AcDbBlockBegin
  2
*Paper_Space
 70
     0
 10
0.0
 20
0.0
 30
0.0
  3
*Paper_Space
  1

  0
ENDBLK
  5
1D
330
1B
100
AcDbEntity
 67
     1
  8
0
100
AcDbBlockEnd
  0
BLOCK
  5
24
330
23
100
AcDbEntity
  8
0
100
AcDbBlockBegin
  2
*Paper_Space0
 70
     0
 10
0.0
 20
0.0
 30
0.0
  3
*Paper_Space0
  1

  0
ENDBLK
  5
25
330
23
100
AcDbEntity
  8
0
100
AcDbBlockEnd
  0
BLOCK
  5
8D
330
8C
100
AcDbEntity
  8
0
100
AcDbBlockBegin
  2
SW_CENTERMARKSYMBOL_0
 70
     0
 10
0.0
 20
0.0
 30
0.0
  3
SW_CENTERMARKSYMBOL_0
  1

  0
LINE
  5
8F
330
8C
100
AcDbEntity
  8
FORMAT
 62
     0
100
AcDbLine
 10
0.0
 20
0.0
 30
0.0
 11
0.0
 21
2.5
 31
0.0
  0
LINE
  5
90
330
8C
100
AcDbEntity
  8
FORMAT
 62
     0
100
AcDbLine
 10
0.0
 20
0.0
 30
0.0
 11
-2.5
 21
0.0
 31
0.0
  0
LINE
  5
91
330
8C
100
AcDbEntity
  8
FORMAT
 62
     0
100
AcDbLine
 10
0.0
 20
0.0
 30
0.0
 11
0.0
 21
-2.5
 31
0.0
  0
LINE
  5
92
330
8C
100
AcDbEntity
  8
FORMAT
 62
     0
100
AcDbLine
 10
0.0
 20
0.0
 30
0.0
 11
2.5
 21
0.0
 31
0.0
  0
LINE
  5
93
330
8C
100
AcDbEntity
  8
FORMAT
 62
     0
100
AcDbLine
 10
0.0
 20
5.0
 30
0.0
 11
0.0
 21
102.5
 31
0.0
  0
LINE
  5
94
330
8C
100
AcDbEntity
  8
FORMAT
 62
     0
100
AcDbLine
 10
-5.0
 20
0.0
 30
0.0
 11
-102.5
 21
0.0
 31
0.0
  0
LINE
  5
95
330
8C
100
AcDbEntity
  8
FORMAT
 62
     0
100
AcDbLine
 10
0.0
 20
-5.0
 30
0.0
 11
0.0
 21
-102.5
 31
0.0
  0
LINE
  5
96
330
8C
100
AcDbEntity
  8
FORMAT
 62
     0
100
AcDbLine
 10
5.0
 20
0.0
 30
0.0
 11
102.5
 21
0.0
 31
0.0
  0
ENDBLK
  5
8E
330
8C
100
AcDbEntity
  8
0
100
AcDbBlockEnd
  0
BLOCK
  5
C7
330
C6
100
AcDbEntity
  8
0
100
AcDbBlockBegin
  2
SW_CENTERMARKSYMBOL_1
 70
     0
 10
0.0
 20
0.0
 30
0.0
  3
SW_CENTERMARKSYMBOL_1
  1

  0
LINE
  5
C9
330
C6
100
AcDbEntity
  8
FORMAT
 62
     0
100
AcDbLine
 10
0.0
 20
0.0
 30
0.0
 11
0.0
 21
2.5
 31
0.0
  0
LINE
  5
CA
330
C6
100
AcDbEntity
  8
FORMAT
 62
     0
100
AcDbLine
 10
0.0
 20
0.0
 30
0.0
 11
-2.5
 21
0.0
 31
0.0
  0
LINE
  5
CB
330
C6
100
AcDbEntity
  8
FORMAT
 62
     0
100
AcDbLine
 10
0.0
 20
0.0
 30
0.0
 11
0.0
 21
-2.5
 31
0.0
  0
LINE
  5
CC
330
C6
100
AcDbEntity
  8
FORMAT
 62
     0
100
AcDbLine
 10
0.0
 20
0.0
 30
0.0
 11
2.5
 21
0.0
 31
0.0
  0
LINE
  5
CD
330
C6
100
AcDbEntity
  8
FORMAT
 62
     0
100
AcDbLine
 10
0.0
 20
5.0
 30
0.0
 11
0.0
 21
9.5
 31
0.0
  0
LINE
  5
CE
330
C6
100
AcDbEntity
  8
FORMAT
 62
     0
100
AcDbLine
 10
-5.0
 20
0.0
 30
0.0
 11
-9.5
 21
0.0
 31
0.0
  0
LINE
  5
CF
330
C6
100
AcDbEntity
  8
FORMAT
 62
     0
100
AcDbLine
 10
0.0
 20
-5.0
 30
0.0
 11
0.0
 21
-9.5
 31
0.0
  0
LINE
  5
D0
330
C6
100
AcDbEntity
  8
FORMAT
 62
     0
100
AcDbLine
 10
5.0
 20
0.0
 30
0.0
 11
9.5
 21
0.0
 31
0.0
  0
ENDBLK
  5
C8
330
C6
100
AcDbEntity
  8
0
100
AcDbBlockEnd
  0
BLOCK
  5
D3
330
D2
100
AcDbEntity
  8
0
100
AcDbBlockBegin
  2
SW_CENTERMARKSYMBOL_2
 70
     0
 10
0.0
 20
0.0
 30
0.0
  3
SW_CENTERMARKSYMBOL_2
  1

  0
LINE
  5
D5
330
D2
100
AcDbEntity
  8
FORMAT
 62
     0
100
AcDbLine
 10
0.0
 20
0.0
 30
0.0
 11
0.0
 21
2.5
 31
0.0
  0
LINE
  5
D6
330
D2
100
AcDbEntity
  8
FORMAT
 62
     0
100
AcDbLine
 10
0.0
 20
0.0
 30
0.0
 11
-2.5
 21
0.0
 31
0.0
  0
LINE
  5
D7
330
D2
100
AcDbEntity
  8
FORMAT
 62
     0
100
AcDbLine
 10
0.0
 20
0.0
 30
0.0
 11
0.0
 21
-2.5
 31
0.0
  0
LINE
  5
D8
330
D2
100
AcDbEntity
  8
FORMAT
 62
     0
100
AcDbLine
 10
0.0
 20
0.0
 30
0.0
 11
2.5
 21
0.0
 31
0.0
  0
LINE
  5
D9
330
D2
100
AcDbEntity
  8
FORMAT
 62
     0
100
AcDbLine
 10
0.0
 20
5.0
 30
0.0
 11
0.0
 21
9.5
 31
0.0
  0
LINE
  5
DA
330
D2
100
AcDbEntity
  8
FORMAT
 62
     0
100
AcDbLine
 10
-5.0
 20
0.0
 30
0.0
 11
-9.5
 21
0.0
 31
0.0
  0
LINE
  5
DB
330
D2
100
AcDbEntity
  8
FORMAT
 62
     0
100
AcDbLine
 10
0.0
 20
-5.0
 30
0.0
 11
0.0
 21
-9.5
 31
0.0
  0
LINE
  5
DC
330
D2
100
AcDbEntity
  8
FORMAT
 62
     0
100
AcDbLine
 10
5.0
 20
0.0
 30
0.0
 11
9.5
 21
0.0
 31
0.0
  0
ENDBLK
  5
D4
330
D2
100
AcDbEntity
  8
0
100
AcDbBlockEnd
  0
ENDSEC
  0
SECTION
  2
ENTITIES
  0
LINE
  5
83
330
1F
100
AcDbEntity
  8
0
  6
Continuous
 62
     7
370
    25
100
AcDbLine
 10
129.1701403815
 20
9.7691780376
 30
0.0
 11
129.1701403815
 21
-3.4699343107
 31
0.0
  0
LINE
  5
84
330
1F
100
AcDbEntity
  8
0
  6
Continuous
 62
     7
370
    25
100
AcDbLine
 10
143.1701403815
 20
-3.4699343107
 30
0.0
 11
143.1701403815
 21
9.774829984
 31
0.0
  0
CIRCLE
  5
85
330
1F
100
AcDbEntity
  8
0
  6
Continuous
 62
     7
370
    25
100
AcDbCircle
 10
136.1701403815
 20
109.5300656893
 30
0.0
 40
100.0
  0
CIRCLE
  5
86
330
1F
100
AcDbEntity
  8
0
  6
Continuous
 62
     7
370
    25
100
AcDbCircle
 10
136.1701403815
 20
109.5300656893
 30
0.0
 40
79.99999999999999
  0
LINE
  5
87
330
1F
100
AcDbEntity
  8
0
  6
Continuous
 62
     7
370
    25
100
AcDbLine
 10
136.1701403815
 20
-3.4699343107
 30
0.0
 11
143.1701403815
 21
-3.4699343107
 31
0.0
  0
LINE
  5
88
330
1F
100
AcDbEntity
  8
0
  6
Continuous
 62
     7
370
    25
100
AcDbLine
 10
129.1701403815
 20
-3.4699343107
 30
0.0
 11
136.1701403815
 21
-3.4699343107
 31
0.0
  0
CIRCLE
  5
89
330
1F
100
AcDbEntity
  8
0
  6
Continuous
 62
     7
370
    25
100
AcDbCircle
 10
136.1701403815
 20
109.5300656893
 30
0.0
 40
78.89442719099989
  0
CIRCLE
  5
8A
330
1F
100
AcDbEntity
  8
0
  6
Continuous
 62
     7
370
    25
100
AcDbCircle
 10
136.1701403815
 20
109.5300656893
 30
0.0
 40
56.10557280900008
  0
CIRCLE
  5
8B
330
1F
100
AcDbEntity
  8
0
  6
Continuous
 62
     7
370
    25
100
AcDbCircle
 10
136.1701403815
 20
109.5300656893
 30
0.0
 40
54.99999999999999
  0
INSERT
  5
97
330
1F
100
AcDbEntity
  8
FORMAT
 62
     7
100
AcDbBlockReference
  2
SW_CENTERMARKSYMBOL_0
 10
136.1701403815
 20
109.5300656893
 30
0.0
  0
ARC
  5
98
330
1F
100
AcDbEntity
  8
0
  6
Continuous
 62
     7
370
    25
100
AcDbCircle
 10
-151.5543986719
 20
207.5300656893
 30
0.0
 40
2.0
100
AcDbArc
 50
26.5650511771
 51
90.0
  0
ARC
  5
99
330
1F
100
AcDbEntity
  8
0
  6
Continuous
 62
     7
370
    25
100
AcDbCircle
 10
-151.5543986719
 20
11.5300656893
 30
0.0
 40
2.000000000000002
100
AcDbArc
 50
270.0
 51
333.4349488229
  0
LINE
  5
9A
330
1F
100
AcDbEntity
  8
0
  6
Continuous
 62
     7
370
    25
100
AcDbLine
 10
-151.5543986719
 20
209.5300656893
 30
0.0
 11
-246.3183306944
 21
209.5300656893
 31
0.0
  0
LINE
  5
9B
330
1F
100
AcDbEntity
  8
0
  6
Continuous
 62
     7
370
    25
100
AcDbLine
 10
-231.4046436036
 20
9.5300656893
 30
0.0
 11
-151.5543986719
 21
9.5300656893
 31
0.0
  0
LINE
  5
9C
330
1F
100
AcDbEntity
  8
0
  6
Continuous
 62
     7
370
    25
100
AcDbLine
 10
-246.3183306944
 20
9.5300656893
 30
0.0
 11
-245.3183306944
 21
9.5300656893
 31
0.0
  0
LINE
  5
9D
330
1F
100
AcDbEntity
  8
0
  6
Continuous
 62
     7
370
    25
100
AcDbLine
 10
-149.7655442899
 20
10.6356384983
 30
0.0
 11
-135.8711170989
 21
38.4244928803
 31
0.0
  0
LINE
  5
9E
330
1F
100
AcDbEntity
  8
0
  6
Continuous
 62
     7
370
    25
100
AcDbLine
 10
-135.8711170989
 20
180.6356384983
 30
0.0
 11
-149.7655442899
 21
208.4244928803
 31
0.0
  0
ARC
  5
9F
330
1F
100
AcDbEntity
  8
0
  6
Continuous
 62
     7
370
    25
100
AcDbCircle
 10
-134.0822627169
 20
181.5300656893
 30
0.0
 40
1.999999999999997
100
AcDbArc
 50
206.5650511771
 51
270.0
  0
ARC
  5
A0
330
1F
100
AcDbEntity
  8
0
  6
Continuous
 62
     7
370
    25
100
AcDbCircle
 10
-134.0822627169
 20
37.5300656893
 30
0.0
 40
2.0
100
AcDbArc
 50
90.0
 51
153.4349488229
  0
LINE
  5
A1
330
1F
100
AcDbEntity
  8
0
  6
Continuous
 62
     7
370
    25
100
AcDbLine
 10
-55.3183306944
 20
179.5300656893
 30
0.0
 11
-134.0822627169
 21
179.5300656893
 31
0.0
  0
LINE
  5
A2
330
1F
100
AcDbEntity
  8
0
  6
Continuous
 62
     7
370
    25
100
AcDbLine
 10
-56.4054894735
 20
39.5300656893
 30
0.0
 11
-55.3183306944
 21
39.5300656893
 31
0.0
  0
LINE
  5
A3
330
1F
100
AcDbEntity
  8
0
  6
Continuous
 62
     7
370
    25
100
AcDbLine
 10
-134.0822627169
 20
39.5300656893
 30
0.0
 11
-70.3183306944
 21
39.5300656893
 31
0.0
  0
LINE
  5
A4
330
1F
100
AcDbEntity
  8
0
  6
Continuous
 62
     7
370
    25
100
AcDbLine
 10
-70.3183306944
 20
39.5300656893
 30
0.0
 11
-70.3183306944
 21
29.5300656893
 31
0.0
  0
LINE
  5
A5
330
1F
100
AcDbEntity
  8
0
  6
Continuous
 62
     7
370
    25
100
AcDbLine
 10
-56.3183306944
 20
29.5300656893
 30
0.0
 11
-56.3183306944
 21
39.5300656893
 31
0.0
  0
LINE
  5
A6
330
1F
100
AcDbEntity
  8
0
  6
Continuous
 62
     7
370
    25
100
AcDbLine
 10
-245.3183306944
 20
9.5300656893
 30
0.0
 11
-245.3183306944
 21
-3.4699343107
 31
0.0
  0
LINE
  5
A7
330
1F
100
AcDbEntity
  8
0
  6
Continuous
 62
     7
370
    25
100
AcDbLine
 10
-231.3183306944
 20
-3.4699343107
 30
0.0
 11
-231.3183306944
 21
9.5300656893
 31
0.0
  0
LINE
  5
A8
330
1F
100
AcDbEntity
  8
0
  6
Continuous
 62
     7
370
    25
100
AcDbLine
 10
-246.3183306944
 20
209.5300656893
 30
0.0
 11
-246.3183306944
 21
9.5300656893
 31
0.0
  0
ARC
  5
A9
330
1F
100
AcDbEntity
  8
0
  6
Continuous
 62
     7
370
    25
100
AcDbCircle
 10
-238.3185446838
 20
-90.3350671562
 30
0.0
 40
100.1101481491291
100
AcDbArc
 50
86.039832667
 51
94.00944075
  0
LINE
  5
AA
330
1F
100
AcDbEntity
  8
0
  6
Continuous
 62
     7
370
    25
100
AcDbLine
 10
-55.3183306944
 20
179.5300656893
 30
0.0
 11
-55.3183306944
 21
39.5300656893
 31
0.0
  0
ARC
  5
AB
330
1F
100
AcDbEntity
  8
0
  6
Continuous
 62
     7
370
    25
100
AcDbCircle
 10
-63.3185876296
 20
-30.2816179802
 30
0.0
 40
70.16172446380389
100
AcDbArc
 50
84.3454203109
 51
95.7256864114
  0
LINE
  5
AC
330
1F
100
AcDbEntity
  8
0
  6
Continuous
 62
     7
370
    25
100
AcDbLine
 10
-70.3183306944
 20
29.5300656893
 30
0.0
 11
-56.3183306944
 21
29.5300656893
 31
0.0
  0
LINE
  5
AD
330
1F
100
AcDbEntity
  8
0
  6
Continuous
 62
     7
370
    25
100
AcDbLine
 10
-245.3183306944
 20
-3.4699343107
 30
0.0
 11
-231.3183306944
 21
-3.4699343107
 31
0.0
  0
LINE
  5
AE
330
1F
100
AcDbEntity
  8
0
  6
Continuous
 62
     1
370
    25
100
AcDbLine
 10
-149.7655442899
 20
208.4244928803
 30
0.0
 11
-149.7655442899
 21
10.6356384983
 31
0.0
  0
LINE
  5
AF
330
1F
100
AcDbEntity
  8
0
  6
Continuous
 62
     1
370
    25
100
AcDbLine
 10
-151.5543986719
 20
209.5300656893
 30
0.0
 11
-151.5543986719
 21
9.5300656893
 31
0.0
  0
LINE
  5
B0
330
1F
100
AcDbEntity
  8
0
  6
Continuous
 62
     1
370
    25
100
AcDbLine
 10
-135.8711170989
 20
180.6356384983
 30
0.0
 11
-135.8711170989
 21
38.4244928803
 31
0.0
  0
LINE
  5
B1
330
1F
100
AcDbEntity
  8
0
  6
Continuous
 62
     1
370
    25
100
AcDbLine
 10
-134.0822627169
 20
179.5300656893
 30
0.0
 11
-134.0822627169
 21
39.5300656893
 31
0.0
  0
ARC
  5
B2
330
1F
100
AcDbEntity
  8
0
  6
Continuous
 62
     7
370
    25
100
AcDbCircle
 10
234.1701403815
 20
363.6843978601
 30
0.0
 40
2.00000000000006
100
AcDbArc
 50
296.5650511771
 51
0.0
  0
ARC
  5
B3
330
1F
100
AcDbEntity
  8
0
  6
Continuous
 62
     7
370
    25
100
AcDbCircle
 10
38.1701403815
 20
363.6843978601
 30
0.0
 40
2.00000000000006
100
AcDbArc
 50
180.0
 51
243.4349488229
  0
LINE
  5
B4
330
1F
100
AcDbEntity
  8
0
  6
Continuous
 62
     7
370
    25
100
AcDbLine
 10
236.1701403815
 20
363.6843978601
 30
0.0
 11
236.1701403815
 21
458.4483298826
 31
0.0
  0
LINE
  5
B5
330
1F
100
AcDbEntity
  8
0
  6
Continuous
 62
     7
370
    25
100
AcDbLine
 10
36.1701403815
 20
458.4483298826
 30
0.0
 11
36.1701403815
 21
363.6843978601
 31
0.0
  0
LINE
  5
B6
330
1F
100
AcDbEntity
  8
0
  6
Continuous
 62
     7
370
    25
100
AcDbLine
 10
37.2757131905
 20
361.8955434781
 30
0.0
 11
65.0645675725
 21
348.0011162871
 31
0.0
  0
LINE
  5
B7
330
1F
100
AcDbEntity
  8
0
  6
Continuous
 62
     7
370
    25
100
AcDbLine
 10
207.2757131905
 20
348.0011162871
 30
0.0
 11
235.0645675725
 21
361.8955434781
 31
0.0
  0
ARC
  5
B8
330
1F
100
AcDbEntity
  8
0
  6
Continuous
 62
     7
370
    25
100
AcDbCircle
 10
208.1701403815
 20
346.2122619051
 30
0.0
 40
2.0
100
AcDbArc
 50
116.5650511771
 51
180.0
  0
ARC
  5
B9
330
1F
100
AcDbEntity
  8
0
  6
Continuous
 62
     7
370
    25
100
AcDbCircle
 10
64.1701403815
 20
346.2122619051
 30
0.0
 40
2.000000000000003
100
AcDbArc
 50
0.0
 51
63.4349488229
  0
LINE
  5
BA
330
1F
100
AcDbEntity
  8
0
  6
Continuous
 62
     7
370
    25
100
AcDbLine
 10
206.1701403815
 20
267.4483298826
 30
0.0
 11
206.1701403815
 21
346.2122619051
 31
0.0
  0
LINE
  5
BB
330
1F
100
AcDbEntity
  8
0
  6
Continuous
 62
     7
370
    25
100
AcDbLine
 10
66.1701403815
 20
346.2122619051
 30
0.0
 11
66.1701403815
 21
267.4483298826
 31
0.0
  0
CIRCLE
  5
BC
330
1F
100
AcDbEntity
  8
0
  6
Continuous
 62
     7
370
    25
100
AcDbCircle
 10
136.1701403815
 20
450.4483298826
 30
0.0
 40
7.0
  0
CIRCLE
  5
BD
330
1F
100
AcDbEntity
  8
0
  6
Continuous
 62
     7
370
    25
100
AcDbCircle
 10
136.1701403815
 20
450.4483298826
 30
0.0
 40
5.0
  0
LINE
  5
BE
330
1F
100
AcDbEntity
  8
0
  6
Continuous
 62
     7
370
    25
100
AcDbLine
 10
236.1701403815
 20
458.4483298826
 30
0.0
 11
36.1701403815
 21
458.4483298826
 31
0.0
  0
CIRCLE
  5
BF
330
1F
100
AcDbEntity
  8
0
  6
Continuous
 62
     7
370
    25
100
AcDbCircle
 10
136.1701403815
 20
275.4483298826
 30
0.0
 40
5.000000000000057
  0
CIRCLE
  5
C0
330
1F
100
AcDbEntity
  8
0
  6
Continuous
 62
     7
370
    25
100
AcDbCircle
 10
136.1701403815
 20
275.4483298826
 30
0.0
 40
7.000000000000057
  0
LINE
  5
C1
330
1F
100
AcDbEntity
  8
0
  6
Continuous
 62
     7
370
    25
100
AcDbLine
 10
206.1701403815
 20
267.4483298826
 30
0.0
 11
66.1701403815
 21
267.4483298826
 31
0.0
  0
LINE
  5
C2
330
1F
100
AcDbEntity
  8
0
  6
Continuous
 62
     1
370
    25
100
AcDbLine
 10
235.0645675725
 20
361.8955434781
 30
0.0
 11
37.2757131905
 21
361.8955434781
 31
0.0
  0
LINE
  5
C3
330
1F
100
AcDbEntity
  8
0
  6
Continuous
 62
     1
370
    25
100
AcDbLine
 10
236.1701403815
 20
363.6843978601
 30
0.0
 11
36.1701403815
 21
363.6843978601
 31
0.0
  0
LINE
  5
C4
330
1F
100
AcDbEntity
  8
0
  6
Continuous
 62
     1
370
    25
100
AcDbLine
 10
207.2757131905
 20
348.0011162871
 30
0.0
 11
65.0645675725
 21
348.0011162871
 31
0.0
  0
LINE
  5
C5
330
1F
100
AcDbEntity
  8
0
  6
Continuous
 62
     1
370
    25
100
AcDbLine
 10
206.1701403815
 20
346.2122619051
 30
0.0
 11
66.1701403815
 21
346.2122619051
 31
0.0
  0
INSERT
  5
D1
330
1F
100
AcDbEntity
  8
FORMAT
 62
     7
100
AcDbBlockReference
  2
SW_CENTERMARKSYMBOL_1
 10
136.1701403815
 20
275.4483298826
 30
0.0
  0
INSERT
  5
DD
330
1F
100
AcDbEntity
  8
FORMAT
 62
     7
100
AcDbBlockReference
  2
SW_CENTERMARKSYMBOL_2
 10
136.1701403815
 20
450.4483298826
 30
0.0
  0
ARC
  5
DE
330
1F
100
AcDbEntity
  8
0
  6
Continuous
 62
     7
370
    25
100
AcDbCircle
 10
363.7418788199
 20
11.5300656893
 30
0.0
 40
2.000000000000002
100
AcDbArc
 50
206.5650511771
 51
270.0
  0
ARC
  5
DF
330
1F
100
AcDbEntity
  8
0
  6
Continuous
 62
     7
370
    25
100
AcDbCircle
 10
363.7418788199
 20
207.5300656893
 30
0.0
 40
2.0
100
AcDbArc
 50
90.0
 51
153.4349488229
  0
LINE
  5
E0
330
1F
100
AcDbEntity
  8
0
  6
Continuous
 62
     7
370
    25
100
AcDbLine
 10
457.5058108424
 20
9.5300656893
 30
0.0
 11
458.5058108424
 21
9.5300656893
 31
0.0
  0
LINE
  5
E1
330
1F
100
AcDbEntity
  8
0
  6
Continuous
 62
     7
370
    25
100
AcDbLine
 10
363.7418788199
 20
9.5300656893
 30
0.0
 11
443.5921237517
 21
9.5300656893
 31
0.0
  0
LINE
  5
E2
330
1F
100
AcDbEntity
  8
0
  6
Continuous
 62
     7
370
    25
100
AcDbLine
 10
458.5058108424
 20
209.5300656893
 30
0.0
 11
363.7418788199
 21
209.5300656893
 31
0.0
  0
LINE
  5
E3
330
1F
100
AcDbEntity
  8
0
  6
Continuous
 62
     7
370
    25
100
AcDbLine
 10
361.9530244379
 20
208.4244928803
 30
0.0
 11
348.0585972469
 21
180.6356384983
 31
0.0
  0
LINE
  5
E4
330
1F
100
AcDbEntity
  8
0
  6
Continuous
 62
     7
370
    25
100
AcDbLine
 10
348.0585972469
 20
38.4244928803
 30
0.0
 11
361.9530244379
 21
10.6356384983
 31
0.0
  0
ARC
  5
E5
330
1F
100
AcDbEntity
  8
0
  6
Continuous
 62
     7
370
    25
100
AcDbCircle
 10
346.2697428649
 20
37.5300656893
 30
0.0
 40
2.0
100
AcDbArc
 50
26.5650511771
 51
90.0
  0
ARC
  5
E6
330
1F
100
AcDbEntity
  8
0
  6
Continuous
 62
     7
370
    25
100
AcDbCircle
 10
346.2697428649
 20
181.5300656893
 30
0.0
 40
1.999999999999997
100
AcDbArc
 50
270.0
 51
333.4349488229
  0
LINE
  5
E7
330
1F
100
AcDbEntity
  8
0
  6
Continuous
 62
     7
370
    25
100
AcDbLine
 10
282.5058108424
 20
39.5300656893
 30
0.0
 11
346.2697428649
 21
39.5300656893
 31
0.0
  0
LINE
  5
E8
330
1F
100
AcDbEntity
  8
0
  6
Continuous
 62
     7
370
    25
100
AcDbLine
 10
267.5058108424
 20
39.5300656893
 30
0.0
 11
268.5929696215
 21
39.5300656893
 31
0.0
  0
LINE
  5
E9
330
1F
100
AcDbEntity
  8
0
  6
Continuous
 62
     7
370
    25
100
AcDbLine
 10
346.2697428649
 20
179.5300656893
 30
0.0
 11
267.5058108424
 21
179.5300656893
 31
0.0
  0
LINE
  5
EA
330
1F
100
AcDbEntity
  8
0
  6
Continuous
 62
     7
370
    25
100
AcDbLine
 10
268.5058108424
 20
39.5386703
 30
0.0
 11
268.5058108424
 21
29.5300656893
 31
0.0
  0
LINE
  5
EB
330
1F
100
AcDbEntity
  8
0
  6
Continuous
 62
     7
370
    25
100
AcDbLine
 10
282.5058108424
 20
29.5300656893
 30
0.0
 11
282.5058108424
 21
39.5300656893
 31
0.0
  0
LINE
  5
EC
330
1F
100
AcDbEntity
  8
0
  6
Continuous
 62
     7
370
    25
100
AcDbLine
 10
443.5058108424
 20
9.5360266131
 30
0.0
 11
443.5058108424
 21
-3.4699343107
 31
0.0
  0
LINE
  5
ED
330
1F
100
AcDbEntity
  8
0
  6
Continuous
 62
     7
370
    25
100
AcDbLine
 10
457.5058108424
 20
-3.4699343107
 30
0.0
 11
457.5058108424
 21
9.5300656893
 31
0.0
  0
LINE
  5
EE
330
1F
100
AcDbEntity
  8
0
  6
Continuous
 62
     7
370
    25
100
AcDbLine
 10
458.5058108424
 20
109.5300656893
 30
0.0
 11
458.5058108424
 21
209.5300656893
 31
0.0
  0
LINE
  5
EF
330
1F
100
AcDbEntity
  8
0
  6
Continuous
 62
     7
370
    25
100
AcDbLine
 10
458.5058108424
 20
9.5300656893
 30
0.0
 11
458.5058108424
 21
109.5300656893
 31
0.0
  0
SPLINE
  5
F0
330
1F
100
AcDbEntity
  8
0
  6
Continuous
 62
     7
370
    25
100
AcDbSpline
210
0.0
220
0.0
230
1.0
 70
     8
 71
     3
 72
    17
 73
    13
 74
     0
 42
0.00000001
 43
0.00000001
 40
0.0
 40
0.0
 40
0.0
 40
0.0
 40
0.1071918252503055
 40
0.2143773237147175
 40
0.3217271633489979
 40
0.4291857689881288
 40
0.536465212876965
 40
0.6435571181397256
 40
0.7507457704688578
 40
0.8581642492566991
 40
0.9655874820899967
 40
1.0
 40
1.0
 40
1.0
 40
1.0
 10
457.5058108424454
 20
9.530065689250494
 30
0.0
 10
457.4286090930136
 20
9.535623437977758
 30
0.0
 10
457.2742101508306
 20
9.546738607397145
 30
0.0
 10
456.0708562140767
 20
9.624042798829516
 30
0.0
 10
454.2971326463829
 20
9.710132689737264
 30
0.0
 10
452.0797334087997
 20
9.772205082700353
 30
0.0
 10
449.6889770634
 20
9.781486545801673
 30
0.0
 10
447.3957034268657
 20
9.734748261603032
 30
0.0
 10
445.4372597815284
 20
9.651203638514946
 30
0.0
 10
444.1024165526428
 20
9.571859777270708
 30
0.0
 10
443.4675835383218
 20
9.527425555165586
 30
0.0
 10
443.567807244297
 20
9.534364835150564
 30
0.0
 10
443.5921237516571
 20
9.536048459310997
 30
0.0
  0
LINE
  5
F1
330
1F
100
AcDbEntity
  8
0
  6
Continuous
 62
     7
370
    25
100
AcDbLine
 10
267.5058108424
 20
109.5300656893
 30
0.0
 11
267.5058108424
 21
179.5300656893
 31
0.0
  0
LINE
  5
F2
330
1F
100
AcDbEntity
  8
0
  6
Continuous
 62
     7
370
    25
100
AcDbLine
 10
267.5058108424
 20
39.5300656893
 30
0.0
 11
267.5058108424
 21
109.5300656893
 31
0.0
  0
SPLINE
  5
F3
330
1F
100
AcDbEntity
  8
0
  6
Continuous
 62
     7
370
    25
100
AcDbSpline
210
0.0
220
0.0
230
1.0
 70
     8
 71
     3
 72
    17
 73
    13
 74
     0
 42
0.00000001
 43
0.00000001
 40
0.0
 40
0.0
 40
0.0
 40
0.0
 40
0.107006730490134
 40
0.2140006436556047
 40
0.3213278002350901
 40
0.4288794428343257
 40
0.5360665901812088
 40
0.6428687183028292
 40
0.7498660069585859
 40
0.8573331836369176
 40
0.9648140045701381
 40
1.0
 40
1.0
 40
1.0
 40
1.0
 10
282.5058108424454
 20
39.53006568925045
 30
0.0
 10
282.4288102939798
 20
39.53798276192568
 30
0.0
 10
282.2748184202163
 20
39.55381595896483
 30
0.0
 10
281.07488150969
 20
39.66401198875926
 30
0.0
 10
279.3046151907246
 20
39.78710678071187
 30
0.0
 10
277.0884390960936
 20
39.87621845215097
 30
0.0
 10
274.6990422396636
 20
39.8897928459865
 30
0.0
 10
272.4085704027173
 20
39.82330905936472
 30
0.0
 10
270.4504141264788
 20
39.70419178524421
 30
0.0
 10
269.1102861309959
 20
39.59052573310016
 30
0.0
 10
268.4700590570448
 20
39.52653847621205
 30
0.0
 10
268.5686532752505
 20
39.5362931345356
 30
0.0
 10
268.5929696215434
 20
39.53869893128596
 30
0.0
  0
LINE
  5
F4
330
1F
100
AcDbEntity
  8
0
  6
Continuous
 62
     7
370
    25
100
AcDbLine
 10
268.5058108424
 20
29.5300656893
 30
0.0
 11
282.5058108424
 21
29.5300656893
 31
0.0
  0
LINE
  5
F5
330
1F
100
AcDbEntity
  8
0
  6
Continuous
 62
     7
370
    25
100
AcDbLine
 10
443.5058108424
 20
-3.4699343107
 30
0.0
 11
457.5058108424
 21
-3.4699343107
 31
0.0
  0
LINE
  5
F6
330
1F
100
AcDbEntity
  8
0
  6
Continuous
 62
     1
370
    25
100
AcDbLine
 10
361.9530244379
 20
109.5300656893
 30
0.0
 11
361.9530244379
 21
208.4244928803
 31
0.0
  0
LINE
  5
F7
330
1F
100
AcDbEntity
  8
0
  6
Continuous
 62
     1
370
    25
100
AcDbLine
 10
361.9530244379
 20
10.6356384983
 30
0.0
 11
361.9530244379
 21
109.5300656893
 31
0.0
  0
LINE
  5
F8
330
1F
100
AcDbEntity
  8
0
  6
Continuous
 62
     1
370
    25
100
AcDbLine
 10
363.7418788199
 20
109.5300656893
 30
0.0
 11
363.7418788199
 21
209.5300656893
 31
0.0
  0
LINE
  5
F9
330
1F
100
AcDbEntity
  8
0
  6
Continuous
 62
     1
370
    25
100
AcDbLine
 10
363.7418788199
 20
9.5300656893
 30
0.0
 11
363.7418788199
 21
109.5300656893
 31
0.0
  0
LINE
  5
FA
330
1F
100
AcDbEntity
  8
0
  6
Continuous
 62
     1
370
    25
100
AcDbLine
 10
348.0585972469
 20
109.5300656893
 30
0.0
 11
348.0585972469
 21
180.6356384983
 31
0.0
  0
LINE
  5
FB
330
1F
100
AcDbEntity
  8
0
  6
Continuous
 62
     1
370
    25
100
AcDbLine
 10
348.0585972469
 20
38.4244928803
 30
0.0
 11
348.0585972469
 21
109.5300656893
 31
0.0
  0
LINE
  5
FC
330
1F
100
AcDbEntity
  8
0
  6
Continuous
 62
     1
370
    25
100
AcDbLine
 10
346.2697428649
 20
109.5300656893
 30
0.0
 11
346.2697428649
 21
179.5300656893
 31
0.0
  0
LINE
  5
FD
330
1F
100
AcDbEntity
  8
0
  6
Continuous
 62
     1
370
    25
100
AcDbLine
 10
346.2697428649
 20
39.5300656893
 30
0.0
 11
346.2697428649
 21
109.5300656893
 31
0.0
  0
ARC
  5
FE
330
1F
100
AcDbEntity
  8
0
  6
Continuous
 62
     7
370
    25
100
AcDbCircle
 10
38.1701403815
 20
-150.9497717454
 30
0.0
 40
2.000000000000007
100
AcDbArc
 50
116.5650511771
 51
180.0
  0
ARC
  5
FF
330
1F
100
AcDbEntity
  8
0
  6
Continuous
 62
     7
370
    25
100
AcDbCircle
 10
234.1701403815
 20
-150.9497717454
 30
0.0
 40
2.0
100
AcDbArc
 50
0.0
 51
63.4349488229
  0
LINE
  5
100
330
1F
100
AcDbEntity
  8
0
  6
Continuous
 62
     7
370
    25
100
AcDbLine
 10
36.1701403815
 20
-150.9497717454
 30
0.0
 11
36.1701403815
 21
-245.7137037679
 31
0.0
  0
LINE
  5
101
330
1F
100
AcDbEntity
  8
0
  6
Continuous
 62
     7
370
    25
100
AcDbLine
 10
236.1701403815
 20
-245.7137037679
 30
0.0
 11
236.1701403815
 21
-150.9497717454
 31
0.0
  0
LINE
  5
102
330
1F
100
AcDbEntity
  8
0
  6
Continuous
 62
     7
370
    25
100
AcDbLine
 10
235.0645675725
 20
-149.1609173634
 30
0.0
 11
207.2757131905
 21
-135.2664901724
 31
0.0
  0
LINE
  5
103
330
1F
100
AcDbEntity
  8
0
  6
Continuous
 62
     7
370
    25
100
AcDbLine
 10
65.0645675725
 20
-135.2664901724
 30
0.0
 11
37.2757131905
 21
-149.1609173634
 31
0.0
  0
ARC
  5
104
330
1F
100
AcDbEntity
  8
0
  6
Continuous
 62
     7
370
    25
100
AcDbCircle
 10
64.1701403815
 20
-133.4776357904
 30
0.0
 40
2.000000000000028
100
AcDbArc
 50
296.5650511771
 51
0.0
  0
ARC
  5
105
330
1F
100
AcDbEntity
  8
0
  6
Continuous
 62
     7
370
    25
100
AcDbCircle
 10
208.1701403815
 20
-133.4776357904
 30
0.0
 40
2.000000000000022
100
AcDbArc
 50
180.0
 51
243.4349488229
  0
LINE
  5
106
330
1F
100
AcDbEntity
  8
0
  6
Continuous
 62
     7
370
    25
100
AcDbLine
 10
66.1701403815
 20
-54.7137037679
 30
0.0
 11
66.1701403815
 21
-133.4776357904
 31
0.0
  0
LINE
  5
107
330
1F
100
AcDbEntity
  8
0
  6
Continuous
 62
     7
370
    25
100
AcDbLine
 10
206.1701403815
 20
-133.4776357904
 30
0.0
 11
206.1701403815
 21
-54.7137037679
 31
0.0
  0
LINE
  5
108
330
1F
100
AcDbEntity
  8
0
  6
Continuous
 62
     7
370
    25
100
AcDbLine
 10
36.1701403815
 20
-245.7137037679
 30
0.0
 11
236.1701403815
 21
-245.7137037679
 31
0.0
  0
LINE
  5
109
330
1F
100
AcDbEntity
  8
0
  6
Continuous
 62
     7
370
    25
100
AcDbLine
 10
66.1701403815
 20
-54.7137037679
 30
0.0
 11
206.1701403815
 21
-54.7137037679
 31
0.0
  0
LINE
  5
10A
330
1F
100
AcDbEntity
  8
0
  6
Continuous
 62
     1
370
    25
100
AcDbLine
 10
37.2757131905
 20
-149.1609173634
 30
0.0
 11
235.0645675725
 21
-149.1609173634
 31
0.0
  0
LINE
  5
10B
330
1F
100
AcDbEntity
  8
0
  6
Continuous
 62
     1
370
    25
100
AcDbLine
 10
36.1701403815
 20
-150.9497717454
 30
0.0
 11
236.1701403815
 21
-150.9497717454
 31
0.0
  0
LINE
  5
10C
330
1F
100
AcDbEntity
  8
0
  6
Continuous
 62
     1
370
    25
100
AcDbLine
 10
65.0645675725
 20
-135.2664901724
 30
0.0
 11
207.2757131905
 21
-135.2664901724
 31
0.0
  0
LINE
  5
10D
330
1F
100
AcDbEntity
  8
0
  6
Continuous
 62
     1
370
    25
100
AcDbLine
 10
66.1701403815
 20
-133.4776357904
 30
0.0
 11
206.1701403815
 21
-133.4776357904
 31
0.0
  0
LINE
  5
10E
330
1F
100
AcDbEntity
  8
0
  6
Continuous
 62
     7
370
    25
100
AcDbLine
 10
463.099744666
 20
-70.8336057891
 30
0.0
 11
396.091525721
 21
-32.1505843834
 31
0.0
  0
LINE
  5
10F
330
1F
100
AcDbEntity
  8
0
  6
Continuous
 62
     7
370
    25
100
AcDbLine
 10
296.0996524574
 20
-205.3603568596
 30
0.0
 11
363.1078714024
 21
-244.0433782653
 31
0.0
  0
LINE
  5
110
330
1F
100
AcDbEntity
  8
0
  6
Continuous
 62
     7
370
    25
100
AcDbLine
 10
344.7524433387
 20
-203.5755151261
 30
0.0
 11
344.7524433387
 21
-214.2902148119
 31
0.0
  0
LINE
  5
111
330
1F
100
AcDbEntity
  8
0
  6
Continuous
 62
     7
370
    25
100
AcDbLine
 10
358.7524433387
 20
-214.2902148119
 30
0.0
 11
358.7524433387
 21
-203.5746996992
 31
0.0
  0
SPLINE
  5
112
330
1F
100
AcDbEntity
  8
0
  6
Continuous
 62
     7
370
    25
100
AcDbSpline
210
0.0
220
0.0
230
1.0
 70
     8
 71
     3
 72
    72
 73
    68
 74
     0
 42
0.00000001
 43
0.00000001
 40
0.0
 40
0.0
 40
0.0
 40
0.0
 40
0.0127809148358711
 40
0.0281507456538716
 40
0.0435451613634053
 40
0.0589715842962848
 40
0.0744345326932334
 40
0.0899355866337052
 40
0.1054737219236088
 40
0.1210458926660108
 40
0.1366477199103952
 40
0.1522741582201453
 40
0.1679200515726524
 40
0.1835805370379883
 40
0.1992512944859412
 40
0.2149286658634963
 40
0.2306096782060249
 40
0.2462918974090552
 40
0.2619732042137635
 40
0.2776524741618456
 40
0.2933289534625327
 40
0.3090021823073726
 40
0.3246719293152721
 40
0.3403381374434585
 40
0.3560008805413197
 40
0.3716603291959114
 40
0.3873167243696062
 40
0.4029703573897782
 40
0.4186215550081651
 40
0.4342706684388958
 40
0.449918065473287
 40
0.4655641249389573
 40
0.4812092329135407
 40
0.4968537802179029
 40
0.512498160801602
 40
0.5281427398162231
 40
0.5437878134134831
 40
0.5594337798104493
 40
0.57508103720545
 40
0.5907299824690215
 40
0.6063810091262072
 40
0.6220345042536982
 40
0.6376908438555386
 40
0.6533503861766288
 40
0.6690134622797785
 40
0.6846803630487337
 40
0.700351321589274
 40
0.7160264897935771
 40
0.7317059076331188
 40
0.7473894635991036
 40
0.7630768446991653
 40
0.7787674746812385
 40
0.7944604399003716
 40
0.8101542314669492
 40
0.8258464284087369
 40
0.8415343512727501
 40
0.8572146144873151
 40
0.8728831023859485
 40
0.8885350238978814
 40
0.9041650837665551
 40
0.9197678050526423
 40
0.9353380205033376
 40
0.9508715156843983
 40
0.9663657573226413
 40
0.9818205884056843
 40
0.9972387376724439
 40
1.0
 40
1.0
 40
1.0
 40
1.0
 10
367.3428452986356
 20
-246.1027625441179
 30
0.0
 10
368.0515386516944
 20
-246.383833679535
 30
0.0
 10
369.6124790526549
 20
-247.0029100246464
 30
0.0
 10
372.1378168393451
 20
-247.7277615936117
 30
0.0
 10
374.8902019646074
 20
-248.3213790543084
 30
0.0
 10
377.7278910739726
 20
-248.7138059306022
 30
0.0
 10
380.6418699740162
 20
-248.9107234461095
 30
0.0
 10
383.6270863674819
 20
-248.9093860141288
 30
0.0
 10
386.6769115264923
 20
-248.7098241929514
 30
0.0
 10
389.7846673231665
 20
-248.3119453741198
 30
0.0
 10
392.943300115265
 20
-247.7163907218647
 30
0.0
 10
396.1455766195042
 20
-246.9243396207912
 30
0.0
 10
399.3841412338432
 20
-245.9375583166367
 30
0.0
 10
402.6515964951353
 20
-244.7583544746699
 30
0.0
 10
405.9405550877494
 20
-243.3895410155897
 30
0.0
 10
409.2436760185636
 20
-241.8343924082112
 30
0.0
 10
412.55367734058
 20
-240.0966095746273
 30
0.0
 10
415.8633277402931
 20
-238.1802991387173
 30
0.0
 10
419.1654860318011
 20
-236.089931318338
 30
0.0
 10
422.4531076982564
 20
-233.8303111379697
 30
0.0
 10
425.7192605730174
 20
-231.4065442333491
 30
0.0
 10
428.9570881064179
 20
-228.8240471175455
 30
0.0
 10
432.1598125271261
 20
-226.088537158821
 30
0.0
 10
435.3207400848135
 20
-223.2060232693245
 30
0.0
 10
438.4332681945356
 20
-220.1827966272522
 30
0.0
 10
441.4908941911968
 20
-217.0254209704648
 30
0.0
 10
444.4872253600521
 20
-213.740722173301
 30
0.0
 10
447.4159899149245
 20
-210.3357769461414
 30
0.0
 10
450.271048624172
 20
-206.8179005880079
 30
0.0
 10
453.0464068222288
 20
-203.1946337841163
 30
0.0
 10
455.7362265835035
 20
-199.4737284806812
 30
0.0
 10
458.3348388713692
 20
-195.663132894789
 30
0.0
 10
460.8367555061577
 20
-191.7709757327374
 30
0.0
 10
463.2366808219369
 20
-187.8055496996497
 30
0.0
 10
465.529521394449
 20
-183.7752970404581
 30
0.0
 10
467.7103939020794
 20
-179.6887982283538
 30
0.0
 10
469.7746411434083
 20
-175.5547454484529
 30
0.0
 10
471.7178428449681
 20
-171.3819210427176
 30
0.0
 10
473.5358265046102
 20
-167.1791721376124
 30
0.0
 10
475.2246706552427
 20
-162.9554006672718
 30
0.0
 10
476.7807120179459
 20
-158.7195445838105
 30
0.0
 10
478.2005518101478
 20
-154.4805591993875
 30
0.0
 10
479.4810611866057
 20
-150.2473988198726
 30
0.0
 10
480.6193858122217
 20
-146.0289988488618
 30
0.0
 10
481.6129495931784
 20
-141.8342585674347
 30
0.0
 10
482.4594576325644
 20
-137.6720248240705
 30
0.0
 10
483.1568985325833
 20
-133.5510768990058
 30
0.0
 10
483.7035462430782
 20
-129.4801128333069
 30
0.0
 10
484.0979617611304
 20
-125.4677375271298
 30
0.0
 10
484.3389951242682
 20
-121.5224529007104
 30
0.0
 10
484.4257883120075
 20
-117.6526503560288
 30
0.0
 10
484.357779875275
 20
-113.8666056442651
 30
0.0
 10
484.1347131394086
 20
-110.1724895272149
 30
0.0
 10
483.7566538859051
 20
-106.5783948279881
 30
0.0
 10
483.2240132493824
 20
-103.0923024528664
 30
0.0
 10
482.5375716316997
 20
-99.72206429901527
 30
0.0
 10
481.6985000907163
 20
-96.47536962918372
 30
0.0
 10
480.7084013238705
 20
-93.3597503658851
 30
0.0
 10
479.5693390140963
 20
-90.3825592611159
 30
0.0
 10
478.2839022969886
 20
-87.55087036063196
 30
0.0
 10
476.8551119797512
 20
-84.87158280680681
 30
0.0
 10
475.2868464018027
 20
-82.3506807903797
 30
0.0
 10
473.5822174700717
 20
-79.99556786094614
 30
0.0
 10
471.749414123163
 20
-77.80595204079361
 30
0.0
 10
469.7796075703167
 20
-75.80736319409188
 30
0.0
 10
468.2883867040213
 20
-74.43969940632535
 30
0.0
 10
467.4198594195294
 20
-73.79475484766274
 30
0.0
 10
467.2879392163544
 20
-73.69679452018141
 30
0.0
  0
LINE
  5
113
330
1F
100
AcDbEntity
  8
0
  6
Continuous
 62
     7
370
    25
100
AcDbLine
 10
516.1501399381
 20
-136.0990249339
 30
0.0
 11
484.3977061707
 21
-117.7687350912
 31
0.0
  0
LINE
  5
114
330
1F
100
AcDbEntity
  8
0
  6
Continuous
 62
     7
370
    25
100
AcDbLine
 10
414.3863343281
 20
-239.005726974
 30
0.0
 11
446.1558286536
 21
-257.3458656672
 31
0.0
  0
LINE
  5
115
330
1F
100
AcDbEntity
  8
0
  6
Continuous
 62
     7
370
    25
100
AcDbLine
 10
468.4961300464
 20
-250.4721750211
 30
0.0
 11
468.4961300464
 21
-258.7800778041
 31
0.0
  0
LINE
  5
116
330
1F
100
AcDbEntity
  8
0
  6
Continuous
 62
     7
370
    25
100
AcDbLine
 10
482.4961300464
 20
-258.7800778041
 30
0.0
 11
482.4961300464
 21
-250.4709869896
 31
0.0
  0
ARC
  5
117
330
1F
100
AcDbEntity
  8
0
  6
Continuous
 62
     7
370
    25
100
AcDbCircle
 10
446.3421295218
 20
-99.8537579326
 30
0.0
 40
33.51099663925165
100
AcDbArc
 50
51.6220937136
 51
59.9958207469
  0
LWPOLYLINE
  5
118
330
1F
100
AcDbEntity
  8
0
  6
Continuous
 62
     7
370
    25
100
AcDbPolyline
 90
        3
 70
   128
 43
0.0
 10
367.1749829119
 20
-246.0370562233
 10
365.6174189403
 20
-245.3534842889
 10
363.1078714024
 20
-244.0433782653
  0
LWPOLYLINE
  5
119
330
1F
100
AcDbEntity
  8
0
  6
Continuous
 62
     7
370
    25
100
AcDbPolyline
 90
      129
 70
   128
 43
0.0
 10
275.3849109706
 20
-159.5758762126
 10
275.4700850791
 20
-155.5201303831
 10
275.7254022129
 20
-151.375815268
 10
276.1502472906
 20
-147.1529148855
 10
276.7435968231
 20
-142.8616025724
 10
277.5040213795
 20
-138.5122164759
 10
278.4296890305
 20
-134.1152346483
 10
279.5183697615
 20
-129.6812498037
 10
280.7674408454
 20
-125.2209438001
 10
282.1738931605
 20
-120.7450619053
 10
283.7343384399
 20
-116.2643869108
 10
285.4450174343
 20
-111.7897131552
 10
287.3018089682
 20
-107.3318205194
 10
289.3002398682
 20
-102.9014484574
 10
291.4354957391
 20
-98.5092701234
 10
293.7024325626
 20
-94.1658666597
 10
296.0955890892
 20
-89.8817017058
 10
298.6091999953
 20
-85.6670961902
 10
301.2372097721
 20
-81.5322034668
 10
303.9732873137
 20
-77.4869848544
 10
306.8108411699
 20
-73.5411856389
 10
309.7430354247
 20
-69.7043115962
 10
312.7628061653
 20
-65.985606092
 10
315.8628784997
 20
-62.3940278136
 10
319.0357840819
 20
-58.9382291875
 10
322.2738791046
 20
-55.6265355354
 10
325.5693627131
 20
-52.4669250174
 10
328.9142957989
 20
-49.4670094119
 10
332.3006201251
 20
-46.6340157785
 10
335.7201777398
 20
-43.9747690468
 10
339.1647306293
 20
-41.4956755753
 10
342.6259805638
 20
-39.2027077172
 10
346.0955890892
 20
-37.1013894329
 10
349.5651976146
 20
-35.1967829823
 10
353.0264475492
 20
-33.493476729
 10
356.4710004386
 20
-31.9955740871
 10
359.8905580534
 20
-30.7066836353
 10
363.2768823796
 20
-29.6299104234
 10
366.6218154653
 20
-28.7678484926
 10
369.9172990739
 20
-28.1225746254
 10
373.1553940965
 20
-27.6956433432
 10
376.3282996788
 20
-27.4880831608
 10
379.4283720131
 20
-27.5003941089
 10
382.4481427538
 20
-27.7325465293
 10
385.3803370086
 20
-28.1839811465
 10
388.2178908647
 20
-28.853610415
 10
390.9539684063
 20
-29.7398211391
 10
393.5819781831
 20
-30.8404783598
 10
396.0955890892
 20
-32.1529304972
 10
398.4887456158
 20
-33.6740157393
 10
400.7556824393
 20
-35.4000696585
 10
402.8909383102
 20
-37.3269340396
 10
404.8893692102
 20
-39.4499668977
 10
406.7461607441
 20
-41.7640536605
 10
408.4568397385
 20
-44.2636194905
 10
410.017285018
 20
-46.9426427146
 10
411.423737333
 20
-49.7946693312
 10
412.6728084169
 20
-52.8128285583
 10
413.7614891479
 20
-55.989849386
 10
414.6871567989
 20
-59.318078093
 10
415.4475813553
 20
-62.7894966846
 10
416.0409308879
 20
-66.3957422095
 10
416.4657759655
 20
-70.1281269063
 10
416.7210930993
 20
-73.9776591333
 10
416.8062672079
 20
-77.9350650304
 10
416.7210930993
 20
-81.9908108599
 10
416.4657759655
 20
-86.135125975
 10
416.0409308879
 20
-90.3580263575
 10
415.4475813553
 20
-94.6493386706
 10
414.6871567989
 20
-98.998724767
 10
413.7614891479
 20
-103.3957065947
 10
412.6728084169
 20
-107.8296914393
 10
411.423737333
 20
-112.2899974429
 10
410.017285018
 20
-116.7658793377
 10
408.4568397385
 20
-121.2465543322
 10
406.7461607441
 20
-125.7212280878
 10
404.8893692102
 20
-130.1791207235
 10
402.8909383102
 20
-134.6094927856
 10
400.7556824393
 20
-139.0016711196
 10
398.4887456158
 20
-143.3450745833
 10
396.0955890892
 20
-147.6292395372
 10
393.5819781831
 20
-151.8438450528
 10
390.9539684063
 20
-155.9787377761
 10
388.2178908647
 20
-160.0239563885
 10
385.3803370086
 20
-163.9697556041
 10
382.4481427538
 20
-167.8066296467
 10
379.4283720131
 20
-171.5253351509
 10
376.3282996788
 20
-175.1169134294
 10
373.1553940965
 20
-178.5727120555
 10
369.9172990739
 20
-181.8844057076
 10
366.6218154653
 20
-185.0440162256
 10
363.2768823796
 20
-188.043931831
 10
359.8905580534
 20
-190.8769254645
 10
356.4710004386
 20
-193.5361721961
 10
353.0264475492
 20
-196.0152656677
 10
349.5651976146
 20
-198.3082335258
 10
346.0955890892
 20
-200.4095518101
 10
342.6259805638
 20
-202.3141582607
 10
339.1647306293
 20
-204.0174645139
 10
335.7201777398
 20
-205.5153671558
 10
332.3006201251
 20
-206.8042576077
 10
328.9142957989
 20
-207.8810308196
 10
325.5693627131
 20
-208.7430927504
 10
322.2738791046
 20
-209.3883666176
 10
319.0357840819
 20
-209.8152978998
 10
315.8628784997
 20
-210.0228580822
 10
312.7628061653
 20
-210.0105471341
 10
309.7430354246
 20
-209.7783947137
 10
306.8108411699
 20
-209.3269600965
 10
303.9732873137
 20
-208.657330828
 10
301.2372097721
 20
-207.7711201038
 10
298.6091999953
 20
-206.6704628832
 10
296.0955890892
 20
-205.3580107458
 10
293.7024325626
 20
-203.8369255037
 10
291.4354957391
 20
-202.1108715845
 10
289.3002398682
 20
-200.1840072034
 10
287.3018089682
 20
-198.0609743453
 10
285.4450174343
 20
-195.7468875824
 10
283.7343384399
 20
-193.2473217525
 10
282.1738931605
 20
-190.5682985284
 10
280.7674408454
 20
-187.7162719118
 10
279.5183697615
 20
-184.6981126847
 10
278.4296890305
 20
-181.5210918569
 10
277.5040213795
 20
-178.19286315
 10
276.7435968231
 20
-174.7214445584
 10
276.1502472906
 20
-171.1151990335
 10
275.7254022129
 20
-167.3828143367
 10
275.4700850791
 20
-163.5332821096
 10
275.3849109706
 20
-159.5758762126
  0
SPLINE
  5
11A
330
1F
100
AcDbEntity
  8
0
  6
Continuous
 62
     7
370
    25
100
AcDbSpline
210
0.0
220
0.0
230
1.0
 70
     8
 71
     3
 72
    10
 73
     6
 74
     0
 42
0.00000001
 43
0.00000001
 40
0.0
 40
0.0
 40
0.0
 40
0.0
 40
0.4289650262655533
 40
0.8579047337171893
 40
1.0
 40
1.0
 40
1.0
 40
1.0
 10
346.8026958704007
 20
-200.8177558659769
 30
0.0
 10
346.311849470466
 20
-201.1653219594886
 30
0.0
 10
345.3301856418364
 20
-201.8604336321094
 30
0.0
 10
344.7204187358339
 20
-202.85983853647
 30
0.0
 10
344.8163813008772
 20
-203.4306031009926
 30
0.0
 10
344.8402604446429
 20
-203.5726310791569
 30
0.0
  0
SPLINE
  5
11B
330
1F
100
AcDbEntity
  8
0
  6
Continuous
 62
     7
370
    25
100
AcDbSpline
210
0.0
220
0.0
230
1.0
 70
     8
 71
     3
 72
    15
 73
    11
 74
     0
 42
0.00000001
 43
0.00000001
 40
0.0
 40
0.0
 40
0.0
 40
0.0
 40
0.0496957008965256
 40
0.1929708903627784
 40
0.3361143091189266
 40
0.4789514674950119
 40
0.6217863995194204
 40
0.7649258845969059
 40
0.9082021461603055
 40
1.0
 40
1.0
 40
1.0
 40
1.0
 10
358.6626147259689
 20
-203.5720432952666
 30
0.0
 10
358.6868999888653
 20
-203.4073269247156
 30
0.0
 10
358.7812008784645
 20
-202.7677250253735
 30
0.0
 10
358.1279589655178
 20
-201.6800687754944
 30
0.0
 10
356.7718955069038
 20
-200.5356898211984
 30
0.0
 10
354.8003506167512
 20
-199.7690054292063
 30
0.0
 10
352.4992933485367
 20
-199.4564891126256
 30
0.0
 10
350.1173843776786
 20
-199.617817471391
 30
0.0
 10
348.1511802999827
 20
-200.1266277501213
 30
0.0
 10
347.1814006484782
 20
-200.6236612854266
 30
0.0
 10
346.8026958704007
 20
-200.8177558659769
 30
0.0
  0
LWPOLYLINE
  5
11C
330
1F
100
AcDbEntity
  8
0
  6
Continuous
 62
     7
370
    25
100
AcDbPolyline
 90
      116
 70
   128
 43
0.0
 10
289.5270465943
 20
-151.4117950944
 10
289.6114579764
 20
-147.795813208
 10
289.8644402059
 20
-144.0931635255
 10
290.2852382845
 20
-140.3148962087
 10
290.8725963853
 20
-136.4722870925
 10
291.6247616008
 20
-132.5768040325
 10
292.5394891744
 20
-128.6400726814
 10
293.6140491996
 20
-124.6738417928
 10
294.8452347669
 20
-120.6899481584
 10
296.2293715346
 20
-116.7002812828
 10
297.7623286946
 20
-112.7167478999
 10
299.4395313003
 20
-108.7512364391
 10
301.2559739199
 20
-104.815581545
 10
303.2062355746
 20
-100.9215287589
 10
305.2844959172
 20
-97.0806994645
 10
307.484552602
 20
-93.3045562063
 10
309.7998397951
 20
-89.6043684797
 10
312.2234477696
 20
-85.9911790994
 10
314.7481435268
 20
-82.4757712424
 10
317.3663923821
 20
-79.0686362675
 10
320.0703804519
 20
-75.7799424046
 10
322.8520379731
 20
-72.6195044088
 10
325.7030633863
 20
-69.5967542692
 10
328.6149481113
 20
-66.7207130603
 10
331.5790019393
 20
-63.9999640193
 10
334.586378969
 20
-61.4426269309
 10
337.6281040052
 20
-59.0563338939
 10
340.6950993448
 20
-56.8482065447
 10
343.7782118685
 20
-54.8248348033
 10
346.8682403566
 20
-52.992257206
 10
349.9559629496
 20
-51.3559428848
 10
353.0321646698
 20
-49.9207752447
 10
356.0876649221
 20
-48.69103739
 10
359.1133448929
 20
-47.6703993417
 10
362.1001747639
 20
-46.8619070851
 10
365.039240661
 20
-46.2679734787
 10
367.9217712563
 20
-45.8903710538
 10
370.7391639455
 20
-45.7302267245
 10
373.4830105216
 20
-45.7880184245
 10
376.1451222679
 20
-46.0635736805
 10
378.7175543968
 20
-46.5560701274
 10
381.1926297596
 20
-47.2640379622
 10
383.5629617587
 20
-48.1853643306
 10
385.8214763918
 20
-49.3172996328
 10
387.9614333635
 20
-50.6564657287
 10
389.9764462012
 20
-52.1988660204
 10
391.8605013146
 20
-53.9398973794
 10
393.6079759428
 20
-55.8743638836
 10
395.2136549346
 20
-57.9964923248
 10
396.6727463128
 20
-60.2999494376
 10
397.9808955752
 20
-62.7778608006
 10
399.1341986905
 20
-65.4228313524
 10
400.1292137487
 20
-68.2269674614
 10
400.9629712338
 20
-71.1819004832
 10
401.6329828858
 20
-74.2788117364
 10
402.1372491267
 20
-77.5084588206
 10
402.4742650277
 20
-80.8612031995
 10
402.6430248009
 20
-84.3270389661
 10
402.6430248009
 20
-87.8956227043
 10
402.4742650277
 20
-91.5563043576
 10
402.1372491267
 20
-95.2981590134
 10
401.6329828858
 20
-99.1100195064
 10
400.9629712338
 20
-102.980509747
 10
400.1292137487
 20
-106.8980786709
 10
399.1341986905
 20
-110.8510347127
 10
397.9808955752
 20
-114.827580698
 10
396.6727463128
 20
-118.8158490507
 10
395.2136549346
 20
-122.8039372104
 10
393.6079759428
 20
-126.7799431545
 10
391.8605013146
 20
-130.7320009188
 10
389.9764462012
 20
-134.6483160095
 10
387.9614333635
 20
-138.517200603
 10
385.8214763918
 20
-142.3271084273
 10
383.5629617587
 20
-146.0666692199
 10
381.1926297596
 20
-149.7247226617
 10
378.7175543968
 20
-153.2903516834
 10
376.1451222679
 20
-156.7529150466
 10
373.4830105216
 20
-160.1020791013
 10
370.7391639455
 20
-163.3278486257
 10
367.9217712563
 20
-166.4205966556
 10
365.039240661
 20
-169.3710932155
 10
362.1001747639
 20
-172.1705328638
 10
359.1133448929
 20
-174.8105609725
 10
356.0876649221
 20
-177.2832986599
 10
353.0321646698
 20
-179.5813663051
 10
349.9559629496
 20
-181.6979055709
 10
346.8682403566
 20
-183.6265998722
 10
343.7782118685
 20
-185.3616932273
 10
340.6950993448
 20
-186.8980074356
 10
337.6281040052
 20
-188.2309575317
 10
334.586378969
 20
-189.3565654685
 10
331.5790019393
 20
-190.2714719898
 10
328.6149481113
 20
-190.9729466546
 10
325.7030633863
 20
-191.4588959871
 10
322.8520379731
 20
-191.7278697233
 10
320.0703804519
 20
-191.7790651399
 10
317.3663923821
 20
-191.6123294497
 10
314.7481435268
 20
-191.2281602576
 10
312.2234477696
 20
-190.6277040753
 10
309.7998397951
 20
-189.8127529001
 10
307.484552602
 20
-188.7857388666
 10
305.2844959172
 20
-187.5497269884
 10
303.2062355746
 20
-186.1084060107
 10
301.2559739199
 20
-184.4660774018
 10
299.4395313003
 20
-182.6276425157
 10
297.7623286946
 20
-180.5985879647
 10
296.2293715346
 20
-178.3849692451
 10
294.8452347669
 20
-175.9933926652
 10
293.6140491996
 20
-173.4309956294
 10
292.5394891744
 20
-170.7054253376
 10
291.6247616008
 20
-167.8248159629
 10
290.8725963853
 20
-164.7977643757
 10
290.2852382845
 20
-161.6333044877
 10
289.8644402059
 20
-158.3408802911
 10
289.6114579764
 20
-154.9303176735
 10
289.5270465943
 20
-151.4117950944
  0
LWPOLYLINE
  5
11D
330
1F
100
AcDbEntity
  8
0
  6
Continuous
 62
     7
370
    25
100
AcDbPolyline
 90
       35
 70
   128
 43
0.0
 10
346.8026958704
 20
-211.4327864205
 10
347.7964884377
 20
-210.9563884798
 10
348.9249963046
 20
-210.5935199963
 10
350.1497894891
 20
-210.3565380211
 10
351.4291591282
 20
-210.253512691
 10
352.7195378234
 20
-210.2879524102
 10
353.9769832758
 20
-210.4586843753
 10
355.1586746887
 20
-210.759894514
 10
356.2243709783
 20
-211.1813254763
 10
357.1377811356
 20
-211.7086259362
 10
357.8678000732
 20
-212.323839309
 10
358.3895678718
 20
-213.0060152412
 10
358.6853163548
 20
-213.7319230494
 10
358.7449741623
 20
-214.4768428141
 10
358.5665097192
 20
-215.215407186
 10
358.1560004181
 20
-215.9224652412
 10
357.5274256609
 20
-216.5739389658
 10
356.702190807
 20
-217.1476432033
 10
355.7083982397
 20
-217.624041144
 10
354.5798903728
 20
-217.9869096275
 10
353.3550971884
 20
-218.2238916027
 10
352.0757275492
 20
-218.3269169327
 10
350.785348854
 20
-218.2924772135
 10
349.5279034016
 20
-218.1217452484
 10
348.3462119887
 20
-217.8205351097
 10
347.2805156991
 20
-217.3991041474
 10
346.3671055418
 20
-216.8718036875
 10
345.6370866042
 20
-216.2565903147
 10
345.1153188056
 20
-215.5744143826
 10
344.8195703226
 20
-214.8485065743
 10
344.7599125151
 20
-214.1035868096
 10
344.9383769582
 20
-213.3650224377
 10
345.3488862593
 20
-212.6579643825
 10
345.9774610165
 20
-212.006490658
 10
346.8026958704
 20
-211.4327864205
  0
LWPOLYLINE
  5
11E
330
1F
100
AcDbEntity
  8
0
  6
Continuous
 62
     7
370
    25
100
AcDbPolyline
 90
       29
 70
   128
 43
0.0
 10
348.2169094328
 20
-212.2491945323
 10
349.0922829561
 20
-211.8461974332
 10
350.1010480289
 20
-211.5657535707
 10
351.1926209582
 20
-211.4219255713
 10
352.3122657192
 20
-211.4219255713
 10
353.4038386485
 20
-211.5657535707
 10
354.4126037213
 20
-211.8461974332
 10
355.2879772446
 20
-212.2491945323
 10
355.9860643348
 20
-212.7545369108
 10
356.4718599902
 20
-213.3368845917
 10
356.7210043882
 20
-213.9670362306
 10
356.7210043882
 20
-214.6133933931
 10
356.4718599902
 20
-215.243545032
 10
355.9860643348
 20
-215.8258927129
 10
355.2879772446
 20
-216.3312350914
 10
354.4126037213
 20
-216.7342321906
 10
353.4038386485
 20
-217.014676053
 10
352.3122657192
 20
-217.1585040525
 10
351.1926209582
 20
-217.1585040525
 10
350.1010480289
 20
-217.014676053
 10
349.0922829561
 20
-216.7342321906
 10
348.2169094328
 20
-216.3312350914
 10
347.5188223426
 20
-215.8258927129
 10
347.0330266872
 20
-215.243545032
 10
346.7838822892
 20
-214.6133933931
 10
346.7838822892
 20
-213.9670362306
 10
347.0330266872
 20
-213.3368845917
 10
347.5188223426
 20
-212.7545369108
 10
348.2169094328
 20
-212.2491945323
  0
LWPOLYLINE
  5
11F
330
1F
100
AcDbEntity
  8
0
  6
Continuous
 62
     7
370
    25
100
AcDbPolyline
 90
       41
 70
   128
 43
0.0
 10
516.1501399381
 20
-136.0990249339
 10
517.9043444106
 20
-137.2187122668
 10
519.7868614703
 20
-138.6886014527
 10
521.5361995519
 20
-140.3585453206
 10
523.1463283247
 20
-142.2227872282
 10
524.6116973412
 20
-144.2749007474
 10
525.9272551708
 20
-146.5078118178
 10
527.0884668133
 20
-148.9138231324
 10
528.0913293315
 20
-151.4846406716
 10
528.9323856505
 20
-154.211402295
 10
529.608736475
 20
-157.0847082902
 10
530.1180502835
 20
-160.0946537764
 10
530.458571366
 20
-163.2308628478
 10
530.6291258755
 20
-166.482524342
 10
530.6291258755
 20
-169.8384291084
 10
530.458571366
 20
-173.2870086479
 10
530.1180502835
 20
-176.8163749924
 10
529.608736475
 20
-180.4143616851
 10
528.9323856505
 20
-184.0685657205
 10
528.0913293315
 20
-187.7663903001
 10
527.0884668133
 20
-191.4950882566
 10
525.9272551708
 20
-195.2418059958
 10
524.6116973412
 20
-198.9936278055
 10
523.1463283247
 20
-202.7376203785
 10
521.5361995519
 20
-206.4608773969
 10
519.7868614703
 20
-210.1505640224
 10
517.9043444106
 20
-213.793961141
 10
515.8951377991
 20
-217.3785092078
 10
513.7661677873
 20
-220.8918515433
 10
511.5247733757
 20
-224.3218769284
 10
509.1786811154
 20
-227.6567613552
 10
506.7359784723
 20
-230.8850087861
 10
504.2050859484
 20
-233.9954907836
 10
501.5947280546
 20
-236.9774848717
 10
498.9139032354
 20
-239.8207114991
 10
496.1718528492
 20
-242.5153694747
 10
493.3780293117
 20
-245.0521697541
 10
490.5420635115
 20
-247.4223674612
 10
487.6737316103
 20
-249.6177920336
 10
484.7829213421
 20
-251.6308753879
 10
482.4961300464
 20
-253.0838728242
  0
LWPOLYLINE
  5
120
330
1F
100
AcDbEntity
  8
0
  6
Continuous
 62
     7
370
    25
100
AcDbPolyline
 90
       11
 70
   128
 43
0.0
 10
468.5482915167
 20
-259.2724807942
 10
467.5251540012
 20
-259.5384194407
 10
464.7560235614
 20
-260.1187324163
 10
462.0434168421
 20
-260.4805052569
 10
459.3966847606
 20
-260.6224908567
 10
456.8249511506
 20
-260.5441997618
 10
454.3370813107
 20
-260.2459018578
 10
451.9416514436
 20
-259.7286254395
 10
449.6469190923
 20
-258.9941536658
 10
447.4607946746
 20
-258.0450184131
 10
446.1558286536
 20
-257.3458656672
  0
SPLINE
  5
121
330
1F
100
AcDbEntity
  8
0
  6
Continuous
 62
     7
370
    25
100
AcDbSpline
210
0.0
220
0.0
230
1.0
 70
     8
 71
     3
 72
    10
 73
     6
 74
     0
 42
0.00000001
 43
0.00000001
 40
0.0
 40
0.0
 40
0.0
 40
0.0
 40
0.4282182242138954
 40
0.8563851562148489
 40
1.0
 40
1.0
 40
1.0
 40
1.0
 10
470.5463825780467
 20
-247.7572412938913
 30
0.0
 10
470.0560884316021
 20
-248.1023756945009
 30
0.0
 10
469.0755588664136
 20
-248.7926031553329
 30
0.0
 10
468.4654079034267
 20
-249.7702161742628
 30
0.0
 10
468.5604635705525
 20
-250.3289931804004
 30
0.0
 10
468.5843387714829
 20
-250.4693416067503
 30
0.0
  0
SPLINE
  5
122
330
1F
100
AcDbEntity
  8
0
  6
Continuous
 62
     7
370
    25
100
AcDbSpline
210
0.0
220
0.0
230
1.0
 70
     8
 71
     3
 72
    15
 73
    11
 74
     0
 42
0.00000001
 43
0.00000001
 40
0.0
 40
0.0
 40
0.0
 40
0.0
 40
0.0478785266863886
 40
0.1912726253793896
 40
0.3344080392348597
 40
0.4769146521672193
 40
0.6194058870415317
 40
0.762516078603826
 40
0.9059168690171566
 40
1.0
 40
1.0
 40
1.0
 40
1.0
 10
482.4080991883885
 20
-250.4681757479914
 30
0.0
 10
482.4322828215469
 20
-250.3064306946366
 30
0.0
 10
482.5288953809875
 20
-249.6602662627207
 30
0.0
 10
481.884191804248
 20
-248.5559637961991
 30
0.0
 10
480.5371494518996
 20
-247.3980164012654
 30
0.0
 10
478.5739595510258
 20
-246.6372282439112
 30
0.0
 10
476.280670422456
 20
-246.3443677978796
 30
0.0
 10
473.900424517424
 20
-246.5281151711411
 30
0.0
 10
471.9168185717691
 20
-247.0539127447594
 30
0.0
 10
470.9352478412744
 20
-247.5576697395491
 30
0.0
 10
470.5463825780467
 20
-247.7572412938913
 30
0.0
  0
LWPOLYLINE
  5
123
330
1F
100
AcDbEntity
  8
0
  6
Continuous
 62
     7
370
    25
100
AcDbPolyline
 90
       35
 70
   128
 43
0.0
 10
470.546382578
 20
-255.9226494127
 10
471.5401751454
 20
-255.446251472
 10
472.6686830122
 20
-255.0833829885
 10
473.8934761967
 20
-254.8464010133
 10
475.1728458358
 20
-254.7433756833
 10
476.463224531
 20
-254.7778154025
 10
477.7206699834
 20
-254.9485473676
 10
478.9023613963
 20
-255.2497575063
 10
479.9680576859
 20
-255.6711884686
 10
480.8814678432
 20
-256.1984889285
 10
481.6114867809
 20
-256.8137023013
 10
482.1332545795
 20
-257.4958782334
 10
482.4290030625
 20
-258.2217860417
 10
482.48866087
 20
-258.9667058064
 10
482.3101964269
 20
-259.7052701783
 10
481.8996871258
 20
-260.4123282335
 10
481.2711123685
 20
-261.063801958
 10
480.4458775147
 20
-261.6375061955
 10
479.4520849473
 20
-262.1139041362
 10
478.3235770805
 20
-262.4767726197
 10
477.098783896
 20
-262.7137545949
 10
475.8194142569
 20
-262.816779925
 10
474.5290355617
 20
-262.7823402058
 10
473.2715901093
 20
-262.6116082407
 10
472.0898986964
 20
-262.310398102
 10
471.0242024068
 20
-261.8889671397
 10
470.1107922495
 20
-261.3616666798
 10
469.3807733118
 20
-260.746453307
 10
468.8590055132
 20
-260.0642773748
 10
468.5632570302
 20
-259.3383695665
 10
468.5035992227
 20
-258.5934498019
 10
468.6820636658
 20
-257.85488543
 10
469.0925729669
 20
-257.1478273748
 10
469.7211477242
 20
-256.4963536502
 10
470.546382578
 20
-255.9226494127
  0
LWPOLYLINE
  5
124
330
1F
100
AcDbEntity
  8
0
  6
Continuous
 62
     7
370
    25
100
AcDbPolyline
 90
       29
 70
   128
 43
0.0
 10
471.9605961404
 20
-256.7390575246
 10
472.8359696638
 20
-256.3360604254
 10
473.8447347366
 20
-256.055616563
 10
474.9363076658
 20
-255.9117885635
 10
476.0559524269
 20
-255.9117885635
 10
477.1475253561
 20
-256.055616563
 10
478.1562904289
 20
-256.3360604254
 10
479.0316639523
 20
-256.7390575246
 10
479.7297510425
 20
-257.2443999031
 10
480.2155466979
 20
-257.826747584
 10
480.4646910958
 20
-258.4568992229
 10
480.4646910958
 20
-259.1032563854
 10
480.2155466979
 20
-259.7334080243
 10
479.7297510425
 20
-260.3157557052
 10
479.0316639523
 20
-260.8210980837
 10
478.1562904289
 20
-261.2240951828
 10
477.1475253561
 20
-261.5045390453
 10
476.0559524269
 20
-261.6483670447
 10
474.9363076658
 20
-261.6483670447
 10
473.8447347366
 20
-261.5045390453
 10
472.8359696638
 20
-261.2240951828
 10
471.9605961404
 20
-260.8210980837
 10
471.2625090502
 20
-260.3157557052
 10
470.7767133948
 20
-259.7334080243
 10
470.5275689969
 20
-259.1032563854
 10
470.5275689969
 20
-258.4568992229
 10
470.7767133948
 20
-257.826747584
 10
471.2625090502
 20
-257.2443999031
 10
471.9605961404
 20
-256.7390575246
  0
LWPOLYLINE
  5
125
330
1F
100
AcDbEntity
  8
0
  6
Continuous
 62
     1
370
    25
100
AcDbPolyline
 90
       63
 70
   128
 43
0.0
 10
467.1472821789
 20
-73.5833845308
 10
467.7639013843
 20
-74.0830910641
 10
469.8991572552
 20
-76.0099554453
 10
471.8975881552
 20
-78.1329883034
 10
473.7543796891
 20
-80.4470750662
 10
475.4650586836
 20
-82.9466408962
 10
477.025503963
 20
-85.6256641203
 10
478.431956278
 20
-88.4776907369
 10
479.6810273619
 20
-91.495849964
 10
480.7697080929
 20
-94.6728707917
 10
481.6953757439
 20
-98.0010994987
 10
482.4558003003
 20
-101.4725180903
 10
483.0491498329
 20
-105.0787636152
 10
483.4739949105
 20
-108.811148312
 10
483.7293120443
 20
-112.660680539
 10
483.8144861529
 20
-116.618086436
 10
483.7293120443
 20
-120.6738322656
 10
483.4739949105
 20
-124.8181473807
 10
483.0491498329
 20
-129.0410477632
 10
482.4558003003
 20
-133.3323600763
 10
481.6953757439
 20
-137.6817461727
 10
480.7697080929
 20
-142.0787280004
 10
479.6810273619
 20
-146.512712845
 10
478.431956278
 20
-150.9730188486
 10
477.025503963
 20
-155.4489007434
 10
475.4650586836
 20
-159.9295757379
 10
473.7543796891
 20
-164.4042494935
 10
471.8975881552
 20
-168.8621421292
 10
469.8991572552
 20
-173.2925141913
 10
467.7639013843
 20
-177.6846925253
 10
465.4969645609
 20
-182.028095989
 10
463.1038080342
 20
-186.3122609429
 10
460.5901971281
 20
-190.5268664585
 10
457.9621873514
 20
-194.6617591818
 10
455.2261098097
 20
-198.7069777942
 10
452.3885559536
 20
-202.6527770097
 10
449.4563616988
 20
-206.4896510524
 10
446.4365909581
 20
-210.2083565566
 10
443.3365186238
 20
-213.7999348351
 10
440.1636130415
 20
-217.2557334612
 10
436.9255180189
 20
-220.5674271133
 10
433.6300344103
 20
-223.7270376313
 10
430.2851013246
 20
-226.7269532367
 10
426.8987769984
 20
-229.5599468702
 10
423.4792193836
 20
-232.2191936018
 10
420.0346664942
 20
-234.6982870734
 10
416.5734165596
 20
-236.9912549315
 10
413.1038080342
 20
-239.0925732158
 10
409.6341995088
 20
-240.9971796664
 10
406.1729495743
 20
-242.7004859196
 10
402.7283966848
 20
-244.1983885615
 10
399.3088390701
 20
-245.4872790134
 10
395.9225147439
 20
-246.5640522252
 10
392.5775816581
 20
-247.4261141561
 10
389.2820980496
 20
-248.0713880233
 10
386.0440030269
 20
-248.4983193055
 10
382.8710974447
 20
-248.7058794879
 10
379.7710251103
 20
-248.6935685398
 10
376.7512543697
 20
-248.4614161194
 10
373.8190601149
 20
-248.0099815022
 10
370.9815062588
 20
-247.3403522337
 10
368.2454287171
 20
-246.4541415095
 10
367.1749829119
 20
-246.0370562233
  0
ARC
  5
126
330
1F
100
AcDbEntity
  8
0
  6
Continuous
 62
     1
370
    25
100
AcDbCircle
 10
485.1712266111
 20
-199.0421272133
 30
0.0
 40
129.5001412550718
100
AcDbArc
 50
130.2759696782
 51
169.7294068545
  0
ARC
  5
127
330
1F
100
AcDbEntity
  8
0
  6
Continuous
 62
     1
370
    25
100
AcDbCircle
 10
486.4094627652
 20
-199.7569457298
 30
0.0
 40
128.8061755517209
100
AcDbArc
 50
131.6127641964
 51
168.3926123363
  0
ENDSEC
  0
SECTION
  2
OBJECTS
  0
DICTIONARY
  5
C
330
0
100
AcDbDictionary
281
     1
  3
ACAD_GROUP
350
D
  3
ACAD_LAYOUT
350
1A
  3
ACAD_MLINESTYLE
350
17
  3
ACAD_PLOTSETTINGS
350
19
  3
ACAD_PLOTSTYLENAME
350
E
  3
ACAD_SCALELIST
350
47
  3
DWGPROPS
350
128
  0
DICTIONARY
  5
D
102
{ACAD_REACTORS
330
C
102
}
330
C
100
AcDbDictionary
281
     1
  0
DICTIONARY
  5
1A
102
{ACAD_REACTORS
330
C
102
}
330
C
100
AcDbDictionary
281
     1
  3
Layout1
350
1E
  3
Layout2
350
26
  3
Model
350
22
  0
DICTIONARY
  5
17
102
{ACAD_REACTORS
330
C
102
}
330
C
100
AcDbDictionary
281
     1
  3
Standard
350
18
  0
DICTIONARY
  5
19
102
{ACAD_REACTORS
330
C
102
}
330
C
100
AcDbDictionary
281
     1
  0
ACDBDICTIONARYWDFLT
  5
E
102
{ACAD_REACTORS
330
C
102
}
330
C
100
AcDbDictionary
281
     1
  3
Normal
350
F
100
AcDbDictionaryWithDefault
340
F
  0
DICTIONARY
  5
47
102
{ACAD_REACTORS
330
C
102
}
330
C
100
AcDbDictionary
281
     1
  3
A0
350
48
  3
A1
350
49
  3
A2
350
4A
  3
A3
350
4B
  3
A4
350
4C
  3
A5
350
4D
  3
A6
350
4E
  3
A7
350
4F
  3
A8
350
50
  3
A9
350
51
  3
B0
350
52
  3
B1
350
53
  3
B2
350
54
  3
B3
350
55
  3
B4
350
56
  3
B5
350
57
  3
B6
350
58
  3
B7
350
59
  3
B8
350
5A
  3
B9
350
5B
  3
C0
350
5C
  3
C1
350
5D
  3
C2
350
5E
  3
C3
350
5F
  3
C4
350
60
  3
C5
350
61
  3
C6
350
62
  3
C7
350
63
  3
C8
350
64
  3
C9
350
65
  3
D0
350
66
  3
D1
350
67
  3
D2
350
68
  0
XRECORD
  5
128
102
{ACAD_REACTORS
330
C
102
}
330
C
100
AcDbXrecord
280
     1
  1
DWGPROPS COOKIE
  2

  3

  4

  6

  7

  8
b.kav
  9

300
=
301
=
302
=
303
=
304
=
305
=
306
=
307
=
308
=
309
=
 40
0.0
 41
2460346.545832974
 42
2460346.54583316
  1

 90
        0
  0
LAYOUT
  5
1E
102
{ACAD_REACTORS
330
1A
102
}
330
1A
100
AcDbPlotSettings
  1

  2
none_device
  4

  6

 40
0.0
 41
0.0
 42
0.0
 43
0.0
 44
0.0
 45
0.0
 46
0.0
 47
0.0
 48
0.0
 49
0.0
140
0.0
141
0.0
142
1.0
143
1.0
 70
   688
 72
     1
 73
     0
 74
     5
  7

 75
    16
147
1.0
148
0.0
149
0.0
100
AcDbLayout
  1
Layout1
 70
     1
 71
     1
 10
0.0
 20
0.0
 11
420.0
 21
297.0
 12
0.0
 22
0.0
 32
0.0
 14
1.0000000000E+20
 24
1.0000000000E+20
 34
1.0000000000E+20
 15
-1.0000000000E+20
 25
-1.0000000000E+20
 35
-1.0000000000E+20
146
0.0
 13
0.0
 23
0.0
 33
0.0
 16
1.0
 26
0.0
 36
0.0
 17
0.0
 27
1.0
 37
0.0
 76
     0
330
1B
  0
LAYOUT
  5
26
102
{ACAD_REACTORS
330
1A
102
}
330
1A
100
AcDbPlotSettings
  1

  2
none_device
  4

  6

 40
0.0
 41
0.0
 42
0.0
 43
0.0
 44
0.0
 45
0.0
 46
0.0
 47
0.0
 48
0.0
 49
0.0
140
0.0
141
0.0
142
1.0
143
1.0
 70
   688
 72
     1
 73
     0
 74
     5
  7

 75
    16
147
1.0
148
0.0
149
0.0
100
AcDbLayout
  1
Layout2
 70
     1
 71
     2
 10
0.0
 20
0.0
 11
0.0
 21
0.0
 12
0.0
 22
0.0
 32
0.0
 14
0.0
 24
0.0
 34
0.0
 15
0.0
 25
0.0
 35
0.0
146
0.0
 13
0.0
 23
0.0
 33
0.0
 16
1.0
 26
0.0
 36
0.0
 17
0.0
 27
1.0
 37
0.0
 76
     0
330
23
  0
LAYOUT
  5
22
102
{ACAD_REACTORS
330
1A
102
}
330
1A
100
AcDbPlotSettings
  1

  2
none_device
  4
Letter_(8.50_x_11.00_Inches)
  6

 40
6.35
 41
6.35
 42
6.35000508
 43
6.35000508
 44
215.9
 45
279.4
 46
0.0
 47
0.0
 48
0.0
 49
0.0
140
0.0
141
0.0
142
1.0
143
1.0
 70
  1712
 72
     1
 73
     0
 74
     0
  7

 75
     0
147
1.0
148
0.0
149
0.0
100
AcDbLayout
  1
Model
 70
     1
 71
     0
 10
0.0
 20
0.0
 11
279.4
 21
215.9
 12
0.0
 22
0.0
 32
0.0
 14
0.0
 24
0.0
 34
0.0
 15
279.4
 25
215.9
 35
0.0
146
0.0
 13
0.0
 23
0.0
 33
0.0
 16
1.0
 26
0.0
 36
0.0
 17
0.0
 27
1.0
 37
0.0
 76
     0
330
1F
331
29
  0
MLINESTYLE
  5
18
102
{ACAD_REACTORS
330
17
102
}
330
17
100
AcDbMlineStyle
  2
Standard
 70
     0
  3

 62
   256
 51
90.0
 52
90.0
 71
     2
 49
0.5
 62
   256
  6
BYLAYER
 49
-0.5
 62
   256
  6
BYLAYER
  0
ACDBPLACEHOLDER
  5
F
102
{ACAD_REACTORS
330
E
102
}
330
E
  0
SCALE
  5
48
102
{ACAD_REACTORS
330
47
102
}
330
47
100
AcDbScale
 70
     0
300
1:1
140
1.0
141
1.0
290
     1
  0
SCALE
  5
49
102
{ACAD_REACTORS
330
47
102
}
330
47
100
AcDbScale
 70
     0
300
1:2
140
1.0
141
2.0
290
     0
  0
SCALE
  5
4A
102
{ACAD_REACTORS
330
47
102
}
330
47
100
AcDbScale
 70
     0
300
1:4
140
1.0
141
4.0
290
     0
  0
SCALE
  5
4B
102
{ACAD_REACTORS
330
47
102
}
330
47
100
AcDbScale
 70
     0
300
1:5
140
1.0
141
5.0
290
     0
  0
SCALE
  5
4C
102
{ACAD_REACTORS
330
47
102
}
330
47
100
AcDbScale
 70
     0
300
1:8
140
1.0
141
8.0
290
     0
  0
SCALE
  5
4D
102
{ACAD_REACTORS
330
47
102
}
330
47
100
AcDbScale
 70
     0
300
1:10
140
1.0
141
10.0
290
     0
  0
SCALE
  5
4E
102
{ACAD_REACTORS
330
47
102
}
330
47
100
AcDbScale
 70
     0
300
1:16
140
1.0
141
16.0
290
     0
  0
SCALE
  5
4F
102
{ACAD_REACTORS
330
47
102
}
330
47
100
AcDbScale
 70
     0
300
1:20
140
1.0
141
20.0
290
     0
  0
SCALE
  5
50
102
{ACAD_REACTORS
330
47
102
}
330
47
100
AcDbScale
 70
     0
300
1:30
140
1.0
141
30.0
290
     0
  0
SCALE
  5
51
102
{ACAD_REACTORS
330
47
102
}
330
47
100
AcDbScale
 70
     0
300
1:40
140
1.0
141
40.0
290
     0
  0
SCALE
  5
52
102
{ACAD_REACTORS
330
47
102
}
330
47
100
AcDbScale
 70
     0
300
1:50
140
1.0
141
50.0
290
     0
  0
SCALE
  5
53
102
{ACAD_REACTORS
330
47
102
}
330
47
100
AcDbScale
 70
     0
300
1:100
140
1.0
141
100.0
290
     0
  0
SCALE
  5
54
102
{ACAD_REACTORS
330
47
102
}
330
47
100
AcDbScale
 70
     0
300
2:1
140
2.0
141
1.0
290
     0
  0
SCALE
  5
55
102
{ACAD_REACTORS
330
47
102
}
330
47
100
AcDbScale
 70
     0
300
4:1
140
4.0
141
1.0
290
     0
  0
SCALE
  5
56
102
{ACAD_REACTORS
330
47
102
}
330
47
100
AcDbScale
 70
     0
300
8:1
140
8.0
141
1.0
290
     0
  0
SCALE
  5
57
102
{ACAD_REACTORS
330
47
102
}
330
47
100
AcDbScale
 70
     0
300
10:1
140
10.0
141
1.0
290
     0
  0
SCALE
  5
58
102
{ACAD_REACTORS
330
47
102
}
330
47
100
AcDbScale
 70
     0
300
100:1
140
100.0
141
1.0
290
     0
  0
SCALE
  5
59
102
{ACAD_REACTORS
330
47
102
}
330
47
100
AcDbScale
 70
     0
300
1/128" = 1'-0"
140
0.0078125
141
12.0
290
     0
  0
SCALE
  5
5A
102
{ACAD_REACTORS
330
47
102
}
330
47
100
AcDbScale
 70
     0
300
1/64" = 1'-0"
140
0.015625
141
12.0
290
     0
  0
SCALE
  5
5B
102
{ACAD_REACTORS
330
47
102
}
330
47
100
AcDbScale
 70
     0
300
1/32" = 1'-0"
140
0.03125
141
12.0
290
     0
  0
SCALE
  5
5C
102
{ACAD_REACTORS
330
47
102
}
330
47
100
AcDbScale
 70
     0
300
1/16" = 1'-0"
140
0.0625
141
12.0
290
     0
  0
SCALE
  5
5D
102
{ACAD_REACTORS
330
47
102
}
330
47
100
AcDbScale
 70
     0
300
3/32" = 1'-0"
140
0.09375
141
12.0
290
     0
  0
SCALE
  5
5E
102
{ACAD_REACTORS
330
47
102
}
330
47
100
AcDbScale
 70
     0
300
1/8" = 1'-0"
140
0.125
141
12.0
290
     0
  0
SCALE
  5
5F
102
{ACAD_REACTORS
330
47
102
}
330
47
100
AcDbScale
 70
     0
300
3/16" = 1'-0"
140
0.1875
141
12.0
290
     0
  0
SCALE
  5
60
102
{ACAD_REACTORS
330
47
102
}
330
47
100
AcDbScale
 70
     0
300
1/4" = 1'-0"
140
0.25
141
12.0
290
     0
  0
SCALE
  5
61
102
{ACAD_REACTORS
330
47
102
}
330
47
100
AcDbScale
 70
     0
300
3/8" = 1'-0"
140
0.375
141
12.0
290
     0
  0
SCALE
  5
62
102
{ACAD_REACTORS
330
47
102
}
330
47
100
AcDbScale
 70
     0
300
1/2" = 1'-0"
140
0.5
141
12.0
290
     0
  0
SCALE
  5
63
102
{ACAD_REACTORS
330
47
102
}
330
47
100
AcDbScale
 70
     0
300
3/4" = 1'-0"
140
0.75
141
12.0
290
     0
  0
SCALE
  5
64
102
{ACAD_REACTORS
330
47
102
}
330
47
100
AcDbScale
 70
     0
300
1" = 1'-0"
140
1.0
141
12.0
290
     0
  0
SCALE
  5
65
102
{ACAD_REACTORS
330
47
102
}
330
47
100
AcDbScale
 70
     0
300
1-1/2" = 1'-0"
140
1.5
141
12.0
290
     0
  0
SCALE
  5
66
102
{ACAD_REACTORS
330
47
102
}
330
47
100
AcDbScale
 70
     0
300
3" = 1'-0"
140
3.0
141
12.0
290
     0
  0
SCALE
  5
67
102
{ACAD_REACTORS
330
47
102
}
330
47
100
AcDbScale
 70
     0
300
6" = 1'-0"
140
6.0
141
12.0
290
     0
  0
SCALE
  5
68
102
{ACAD_REACTORS
330
47
102
}
330
47
100
AcDbScale
 70
     0
300
1'-0" = 1'-0"
140
12.0
141
12.0
290
     0
  0
ENDSEC
  0
EOF
